>
 >
By Your Bedside

By Your Bedside Guitar Tabs

Vehemence - By Your Bedside chords, tabs, tablatures, lyrics

Guitar lessons | Add/correct | Request | Top 50 tabs Artists:  A B C D E F G H I J K L M N O P Q R S T U V W X Y Z 0-9

By Your Bedside Guitar Tabs – Vehemence

CD, Sheet music, Poster

Do you like By Your Bedside? Share with your friends now
TabsTabs v2
100% correct, posted by the guitarists themselves!

Bjorn

Bjorn - Guitar



                                             
B ||----------------------------------------|
F#||----------------------------------------|
D ||----------------------------------------|
A ||----------------------------------------|
E ||--------7---7---6---6-------------------|
B ||--0-0-0---0---0---0---0-1-0-2-2-0-3-3-0-|


                                         
----------------------------------------|
----------------------------------------|
----------------------------------------|
----------------------------------------|
--------7---7---6---6-------------------|
--0-0-0---0---0---0---0-1-0-2-2-0-3-3-0-|


                                                                              
----------------------------------------|------------------------------------|
----------------------------------------|------------------------------------|
----------------------------------------|------------------------------------|
----------------------------------------|------------------------------------|
--------7---7---6---6-------------------|--------7---7---6---9---10---9---7--|
--0-0-0---0---0---0---0-1-0-2-2-0-3-3-0-|--0-0-0---0---0---0---0----0---0----|


                                         
----------------------------------------|
----------------------------------------|
----------------------------------------|
----------------------------------------|
--------7---7---6---6-------------------|
--8-8-8---8---8---8---8-8-8-8-8-8-7-7-7-|


                                         
----------------------------------------|
----------------------------------------|
----------------------------------------|
----------------------------------------|
--------7---7---6---6-------------------|
--8-8-8---8---8---8---8-8-8-8-8-8-7-7-7-|


                                                                              
----------------------------------------|------------------------------------|
----------------------------------------|------------------------------------|
----------------------------------------|------------------------------------|
----------------------------------------|------------------------------------|
--------7---7---6---6-------------------|--------7---7---6---9---10---9---7--|
--8-8-8---8---8---8---8-8-8-8-8-8-7-7-7-|--8-8-8---8---8---8---8----8---8----|


                                         
----------------------------------------|
----------------------------------------|
----------------------------------------|
----------------------------------------|
--------7---7---6---6-------------------|
--0-0-0---0---0---0---0-1-0-2-2-0-3-3-0-|


                                         
----------------------------------------|
----------------------------------------|
----------------------------------------|
----------------------------------------|
--------7---7---6---6-------------------|
--0-0-0---0---0---0---0-1-0-2-2-0-3-3-0-|


                                                                              
----------------------------------------|------------------------------------|
----------------------------------------|------------------------------------|
----------------------------------------|------------------------------------|
----------------------------------------|------------------------------------|
--------7---7---6---6-------------------|--------7---7---6---9---10---9---7--|
--0-0-0---0---0---0---0-1-0-2-2-0-3-3-0-|--0-0-0---0---0---0---0----0---0----|


                                         
----------------------------------------|
----------------------------------------|
----------------------------------------|
----------------------------------------|
--------7---7---6---6-------------------|
--8-8-8---8---8---8---8-8-8-8-8-8-7-7-7-|


                                         
----------------------------------------|
----------------------------------------|
----------------------------------------|
----------------------------------------|
--------7---7---6---6-------------------|
--8-8-8---8---8---8---8-8-8-8-8-8-7-7-7-|


                                                                              
----------------------------------------|------------------------------------|
----------------------------------------|------------------------------------|
----------------------------------------|------------------------------------|
----------------------------------------|------------------------------------|
--------7---7---6---6-------------------|--------7---7---6---9---10---9---7--|
--8-8-8---8---8---8---8-8-8-8-8-8-7-7-7-|--8-8-8---8---8---8---8----8---8----|


                                                                       
----------------------------------------------------------------------|
----------------------------------------------------------------------|
----------------------------------------------------------------------|
----------------------------------9-9-9-9-9-9-9-9---------------------|
--7-7-7-7-7-7-7-7-7-7-7-7-7-7-7-7-----------------9-9-9-9-10-10-10-10-|
----------------------------------------------------------------------|


                                                                   
------------------------------------------------------------------|
------------------------------------------------------------------|
--9-9-9-9-9-9-9-9-9-9-9-9-9-9-9-9-7-7-7-7-7-7-7-7-5-5-5-5-4-4-4-4-|
------------------------------------------------------------------|
------------------------------------------------------------------|
------------------------------------------------------------------|


                                                                   
------------------------------------------------------------------|
------------------------------------------------------------------|
--4-4-4-4-4-4-4-4-4-4-4-4-5-5-4-4-5-5-5-5-5-5-5-5-5-5-5-5-4-4-5-5-|
------------------------------------------------------------------|
------------------------------------------------------------------|
------------------------------------------------------------------|


                                                                   
------------------------------------------------------------------|
------------------------------------------------------------------|
--4-4-4-4-4-4-4-4-7-7-7-7-7-7-7-7---------------------------------|
------------------------------------------------------------------|
----------------------------------7-7-7-7-7-7-7-7-7-7-7-7-7-7-7-7-|
------------------------------------------------------------------|


                                                                       
----------------------------------------------------------------------|
----------------------------------------------------------------------|
--------------------------------------9-9-9-9-9-9-9-9-9-9-9-9-9-9-9-9-|
--9-9-9-9-9-9-9-9-----------------------------------------------------|
------------------9-9-9-9-10-10-10-10---------------------------------|
----------------------------------------------------------------------|


                                                                   
------------------------------------------------------------------|
------------------------------------------------------------------|
--7-7-7-7-7-7-7-7-5-5-5-5-4-4-4-4-4-4-4-4-4-4-4-4-4-4-4-4-5-5-4-4-|
------------------------------------------------------------------|
------------------------------------------------------------------|
------------------------------------------------------------------|


                                                                   
------------------------------------------------------------------|
------------------------------------------------------------------|
--5-5-5-5-5-5-5-5-5-5-5-5-4-4-5-5-4-4-4-4-4-4-4-4-7-7-7-7-7-7-7-7-|
------------------------------------------------------------------|
------------------------------------------------------------------|
------------------------------------------------------------------|


                                         
----------------------------------------|
----------------------------------------|
----------------------------------------|
----------------------------------------|
--------7---7---6---6-------------------|
--0-0-0---0---0---0---0-1-0-2-2-0-3-3-0-|


                                         
----------------------------------------|
----------------------------------------|
----------------------------------------|
----------------------------------------|
--------7---7---6---6-------------------|
--0-0-0---0---0---0---0-1-0-2-2-0-3-3-0-|


                                                                              
----------------------------------------|------------------------------------|
----------------------------------------|------------------------------------|
----------------------------------------|------------------------------------|
----------------------------------------|------------------------------------|
--------7---7---6---6-------------------|--------7---7---6---9---10---9---7--|
--0-0-0---0---0---0---0-1-0-2-2-0-3-3-0-|--0-0-0---0---0---0---0----0---0----|


                                         
----------------------------------------|
----------------------------------------|
----------------------------------------|
----------------------------------------|
--------7---7---6---6-------------------|
--8-8-8---8---8---8---8-8-8-8-8-8-7-7-7-|


                                         
----------------------------------------|
----------------------------------------|
----------------------------------------|
----------------------------------------|
--------7---7---6---6-------------------|
--8-8-8---8---8---8---8-8-8-8-8-8-7-7-7-|


                                                                              
----------------------------------------|------------------------------------|
----------------------------------------|------------------------------------|
----------------------------------------|------------------------------------|
----------------------------------------|------------------------------------|
--------7---7---6---6-------------------|--------7---7---6---9---10---9---7--|
--8-8-8---8---8---8---8-8-8-8-8-8-7-7-7-|--8-8-8---8---8---8---8----8---8----|


                                                                       
----------------------------------------------------------------------|
----------------------------------------------------------------------|
----------------------------------------------------------------------|
----------------------------------9-9-9-9-9-9-9-9---------------------|
--7-7-7-7-7-7-7-7-7-7-7-7-7-7-7-7-----------------9-9-9-9-10-10-10-10-|
----------------------------------------------------------------------|


                                                                   
------------------------------------------------------------------|
------------------------------------------------------------------|
--9-9-9-9-9-9-9-9-9-9-9-9-9-9-9-9-7-7-7-7-7-7-7-7-5-5-5-5-4-4-4-4-|
------------------------------------------------------------------|
------------------------------------------------------------------|
------------------------------------------------------------------|


                                                                   
------------------------------------------------------------------|
------------------------------------------------------------------|
--4-4-4-4-4-4-4-4-4-4-4-4-5-5-4-4-5-5-5-5-5-5-5-5-5-5-5-5-4-4-5-5-|
------------------------------------------------------------------|
------------------------------------------------------------------|
------------------------------------------------------------------|


                                                                   
------------------------------------------------------------------|
------------------------------------------------------------------|
--4-4-4-4-4-4-4-4-7-7-7-7-7-7-7-7---------------------------------|
------------------------------------------------------------------|
----------------------------------7-7-7-7-7-7-7-7-7-7-7-7-7-7-7-7-|
------------------------------------------------------------------|


                                                                       
----------------------------------------------------------------------|
----------------------------------------------------------------------|
--------------------------------------9-9-9-9-9-9-9-9-9-9-9-9-9-9-9-9-|
--9-9-9-9-9-9-9-9-----------------------------------------------------|
------------------9-9-9-9-10-10-10-10---------------------------------|
----------------------------------------------------------------------|


                                                                   
------------------------------------------------------------------|
------------------------------------------------------------------|
--7-7-7-7-7-7-7-7-5-5-5-5-4-4-4-4-4-4-4-4-4-4-4-4-4-4-4-4-5-5-4-4-|
------------------------------------------------------------------|
------------------------------------------------------------------|
------------------------------------------------------------------|


                                                                   
------------------------------------------------------------------|
------------------------------------------------------------------|
--5-5-5-5-5-5-5-5-5-5-5-5-4-4-5-5-4-4-4-4-4-4-4-4-7-7-7-7-7-7-7-7-|
------------------------------------------------------------------|
------------------------------------------------------------------|
------------------------------------------------------------------|


                                                            
-----------------------------------------------------------|
-----------------------------------------------------------|
-----------------------------------------------------------|
-------------10-10-10-10-10-10-10-10-10-10-10-10-9-9-10-10-|
--2----2-2---7--7--7--7--7--7--7--7--7--7--7--7--7-7-7--7--|
--0----0-0-------------------------------------------------|


                                                                 
----------------------------------------------------------------|
----------------------------------------------------------------|
----------------------------------------------------------------|
--9--9--9--9--9--9--9--9--5-5-5-5-5-5-5-5-----------------------|
--10-10-10-10-10-10-10-10-7-7-7-7-7-7-7-7-4-4-3-2-3-4-4-3-4-4-3-|
------------------------------------------2-2-1-0-1-2-2-1-2-2-1-|


                                                                     
--------------------------------------------------------------------|
--------------------------------------------------------------------|
--------------------------------------------------------------------|
----------------------10-10-10-10-10-10-10-10-10-10-10-10-9-9-10-10-|
--2-3-4-4-3-7-7-8-7-5-7--7--7--7--7--7--7--7--7--7--7--7--7-7-7--7--|
--0-1-2-2-1-5-5-6-5-3-----------------------------------------------|


                                                           
----------------------------------------------------------|
----------------------------------------------------------|
----------------------------------------------------------|
--9--9--9--9--9--9--9--9----------------------------------|
--10-10-10-10-10-10-10-10-4-4-3-2-3-4-4-3-4-4-3-2-3-4-4-3-|
--------------------------2-2-1-0-1-2-2-1-2-2-1-0-1-2-2-1-|


                                                                                
--------------------------------------------------------------------------------
--------------------------------------------------------------------------------
--------------------------------------------------------------------------------
------------10-10-10-10-10-10-10-10-10-10-10-10-9-9-10-10-9--9--9--9--9--9--9--9
--7-7-8-7-5-7--7--7--7--7--7--7--7--7--7--7--7--7-7-7--7--10-10-10-10-10-10-10-1
--5-5-6-5-3---------------------------------------------------------------------


                                                   
--------------------------------------------------|
--------------------------------------------------|
--------------------------------------------------|
--5-5-5-5-5-5-5-5---------------------------------|
--7-7-7-7-7-7-7-7-4-4-3-2-3-4-4-3-4-4-3-2-3-4-4-3-|
------------------2-2-1-0-1-2-2-1-2-2-1-0-1-2-2-1-|


                                                                                
--------------------------------------------------------------------------------
--------------------------------------------------------------------------------
--------------------------------------------------------------------------------
------------10-10-10-10-10-10-10-10-10-10-10-10-9-9-10-10-9--9--9--9--9--9--9--9
--7-7-8-7-5-7--7--7--7--7--7--7--7--7--7--7--7--7-7-7--7--10-10-10-10-10-10-10-1
--5-5-6-5-3---------------------------------------------------------------------


                                             
--------------------------------------------|
--------------------------------------------|
--------------------------------------------|
--------------------------------------------|
--4-4-3-2-3-4-4-3-4-4-3-2-3-4-4-3-7-7-8-7-5-|
--2-2-1-0-1-2-2-1-2-2-1-0-1-2-2-1-5-5-6-5-3-|


                                             
--------------------------------------------|
--------------------------------------------|
--------------------------------------------|
--------------------------------------------|
--4-4-3-2-3-4-4-3-4-4-3-2-3-4-4-3-7-7-8-7-5-|
--2-2-1-0-1-2-2-1-2-2-1-0-1-2-2-1-5-5-6-5-3-|


                                             
--------------------------------------------|
--------------------------------------------|
--------------------------------------------|
--------------------------------------------|
--4-4-3-2-3-4-4-3-4-4-3-2-3-4-4-3-7-7-8-7-5-|
--2-2-1-0-1-2-2-1-2-2-1-0-1-2-2-1-5-5-6-5-3-|


                                                    
---------------------------------------------------|
---------------------------------------------------|
---------------------------------------------------|
-------------------9-9-9-9-9-9-9-9-9-9-9-9-9-9-9-9-|
------7-10-3-7-----7-7-7-7-7-7-7-7-7-7-7-7-9-9-9-9-|
--5-8----------5-8---------------------------------|


                                                                                
--------------------------------------------------------------------------------
--------------------------------------------------------------------------------
--------------------------------------------------------------------------------
--9-9-9-9-9--9--9--9--9--9--9--9--9--9--9--9--9-9-9-9-9-9-9-9-9-9-9-9-9-9-9--9--
--9-9-9-9-10-10-10-10-10-10-10-10-10-10-10-10-7-7-7-7-7-7-7-7-7-7-7-7-9-9-10-10-
--------------------------------------------------------------------------------


                                                                           
--------------------------------------------------------------------------|
--------------------------------------------------------------------------|
--------------------------------------------------------------------------|
--9-9-9-9-9--9--9--9--9--9--9--9--9-9-9-9-9-9-9-9-9-9-9-9-9-9-9-9-9-9-9-9-|
--9-9-9-9-10-10-10-10-10-10-10-10-6-6-6-6-7-7-7-7-7-7-7-7-7-7-7-7-9-9-9-9-|
----------8--8--8--8--8--8--8--8------------------------------------------|


                                                                                
--------------------------------------------------------------------------------
--------------------------------------------------------------------------------
--------------------------------------------------------------------------------
--9-9-9-9-9--9--9--9--9--9--9--9--9--9--9--9--9-9-9-9-9-9-9--9--9-9-9-9-9-------
--9-9-9-9-10-10-10-10-10-10-10-10-10-10-10-10-7-7-7-7-9-9-10-10-9-9-9-9-9-9-9-9-
--------------------------------------------------------------------------7-7-7-


                                                      
-----------------------------------------------------|
-----------------------------------------------------|
-----------------------------------------------------|
-----------------------9-9-9-9-9-9-9-9-9-9-9-9-9-9-9-|
--9-10-9-10--12-10-12--7-7-7-7-7-7-7-7-7-7-7-7-9-9-9-|
--7-8--7-8---10-8--10--------------------------------|


                                                                                
-------------------------------------------------------------------------------|
-------------------------------------------------------------------------------|
-------------------------------------------------------------------------------|
--9-9-9-9-9-9--9--9--9--9--9--9--9--9--9--9--9--9-9-9-9-9-9-9-9-9-9-9-9-9-9-9--|
--9-9-9-9-9-10-10-10-10-10-10-10-10-10-10-10-10-7-7-7-7-7-7-7-7-7-7-7-7-9-9-10-|
-------------------------------------------------------------------------------|


                                                                            
---------------------------------------------------------------------------|
---------------------------------------------------------------------------|
---------------------------------------------------------------------------|
--9--9-9-9-9-9--9--9--9--9--9--9--9--9-9-9-9-9-9-9-9-9-9-9-9-9-9-9-9-9-9-9-|
--10-9-9-9-9-10-10-10-10-10-10-10-10-6-6-6-6-7-7-7-7-7-7-7-7-7-7-7-7-9-9-9-|
-------------8--8--8--8--8--8--8--8----------------------------------------|


                                                                                
--------------------------------------------------------------------------------
--------------------------------------------------------------------------------
--------------------------------------------------------------------------------
--9-9-9-9-9-9--9--9--9--9--9--9--9--9--9--9--9--9-9-9-9-9-9-9--9--9-9-9-9-------
--9-9-9-9-9-10-10-10-10-10-10-10-10-10-10-10-10-7-7-7-7-9-9-10-10-9-9-9-9-9-9-9-
--------------------------------------------------------------------------7-7-7-


                                                                  
------------------------------------|----------------------------|
------------------------------------|----------------------------|
------------------------------------|----------------------------|
------------------------------------|----------------------------|
--10-9-10--12-10-12--10--9--10--12--|--10--12--------------------|
--8--7-8---10-8--10--8---7--8---10--|--8---10--0-0---0-0---0-0---|


                                                                        
--------------------------------|--------------------------------------|
--------------------------------|--------------------------------------|
--------------------------------|--------------------------------------|
--------------------------------|--------------------------------------|
--------------------------------|------------------7---7---6---6-------|
--0-0-0-0-0-0-0-0---0-0---0-0---|--0-0-0-0-0-0-0-0---0---0---0---0-1-0-|


                                         
----------------------------------------|
----------------------------------------|
----------------------------------------|
----------------------------------------|
--------------------7---7---6---6-------|
--2-2-0-3-3-0-0-0-0---0---0---0---0-1-0-|


                                         
----------------------------------------|
----------------------------------------|
----------------------------------------|
----------------------------------------|
--------------------7---7---6---6-------|
--2-2-0-3-3-0-0-0-0---0---0---0---0-1-0-|


                                                                              
-----------------------------------------|-----------------------------------|
-----------------------------------------|-----------------------------------|
-----------------------------------------|-----------------------------------|
-----------------------------------------|-----------------------------------|
--------------------7---7---6---9---10---|--9---7--------7---7---6---6-------|
--2-2-0-3-3-0-0-0-0---0---0---0---0----0-|----0----8-8-8---8---8---8---8-8-8-|


                                         
----------------------------------------|
----------------------------------------|
----------------------------------------|
----------------------------------------|
--------------------7---7---6---6-------|
--8-8-8-7-7-7-8-8-8---8---8---8---8-8-8-|


                                         
----------------------------------------|
----------------------------------------|
----------------------------------------|
----------------------------------------|
--------------------7---7---6---6-------|
--8-8-8-7-7-7-8-8-8---8---8---8---8-8-8-|


                                                                              
-----------------------------------------|-----------------------------------|
-----------------------------------------|-----------------------------------|
-----------------------------------------|-----------------------------------|
-----------------------------------------|-----------------------------------|
--------------------7---7---6---9---10---|--9---7--------7---7---6---6-------|
--8-8-8-7-7-7-8-8-8---8---8---8---8----8-|----8----0-0-0---0---0---0---0-1-0-|


                                         
----------------------------------------|
----------------------------------------|
----------------------------------------|
----------------------------------------|
--------------------7---7---6---6-------|
--2-2-0-3-3-0-0-0-0---0---0---0---0-1-0-|


                                         
----------------------------------------|
----------------------------------------|
----------------------------------------|
----------------------------------------|
--------------------7---7---6---6-------|
--2-2-0-3-3-0-0-0-0---0---0---0---0-1-0-|


                                                                              
-----------------------------------------|-----------------------------------|
-----------------------------------------|-----------------------------------|
-----------------------------------------|-----------------------------------|
-----------------------------------------|-----------------------------------|
--------------------7---7---6---9---10---|--9---7--------7---7---6---6-------|
--2-2-0-3-3-0-0-0-0---0---0---0---0----0-|----0----8-8-8---8---8---8---8-8-8-|


                                         
----------------------------------------|
----------------------------------------|
----------------------------------------|
----------------------------------------|
--------------------7---7---6---6-------|
--8-8-8-7-7-7-8-8-8---8---8---8---8-8-8-|


                                         
----------------------------------------|
----------------------------------------|
----------------------------------------|
----------------------------------------|
--------------------7---7---6---6-------|
--8-8-8-7-7-7-8-8-8---8---8---8---8-8-8-|


                                          
-----------------------------------------|
-----------------------------------------|
-----------------------------------------|
-----------------------------------------|
--------------------7---7---6---9---10---|
--8-8-8-7-7-7-8-8-8---8---8---8---8----8-|


                                                          
---------------------------------------------------------|
---------------------------------------------------------|
---------------------------------------------------------|
-----------------------------------------9-9-9-9-9-9-9-9-|
--9---7--7-7-7-7-7-7-7-7-7-7-7-7-7-7-7-7-----------------|
----8----------------------------------------------------|


                                                                       
----------------------------------------------------------------------|
----------------------------------------------------------------------|
----------------------9-9-9-9-9-9-9-9-9-9-9-9-9-9-9-9-7-7-7-7-7-7-7-7-|
----------------------------------------------------------------------|
--9-9-9-9-10-10-10-10-------------------------------------------------|
----------------------------------------------------------------------|


                                                                   
------------------------------------------------------------------|
------------------------------------------------------------------|
--5-5-5-5-4-4-4-4-4-4-4-4-4-4-4-4-4-4-4-4-5-5-4-4-5-5-5-5-5-5-5-5-|
------------------------------------------------------------------|
------------------------------------------------------------------|
------------------------------------------------------------------|


                                                                   
------------------------------------------------------------------|
------------------------------------------------------------------|
--5-5-5-5-4-4-5-5-4-4-4-4-4-4-4-4-7-7-7-7-7-7-7-7-----------------|
------------------------------------------------------------------|
--------------------------------------------------7-7-7-7-7-7-7-7-|
------------------------------------------------------------------|


                                                                       
----------------------------------------------------------------------|
----------------------------------------------------------------------|
------------------------------------------------------9-9-9-9-9-9-9-9-|
------------------9-9-9-9-9-9-9-9-------------------------------------|
--7-7-7-7-7-7-7-7-----------------9-9-9-9-10-10-10-10-----------------|
----------------------------------------------------------------------|


                                                                   
------------------------------------------------------------------|
------------------------------------------------------------------|
--9-9-9-9-9-9-9-9-7-7-7-7-7-7-7-7-5-5-5-5-4-4-4-4-4-4-4-4-4-4-4-4-|
------------------------------------------------------------------|
------------------------------------------------------------------|
------------------------------------------------------------------|


                                                                   
------------------------------------------------------------------|
------------------------------------------------------------------|
--4-4-4-4-5-5-4-4-5-5-5-5-5-5-5-5-5-5-5-5-4-4-5-5-4-4-4-4-4-4-4-4-|
------------------------------------------------------------------|
------------------------------------------------------------------|
------------------------------------------------------------------|


                                                      
-----------------------------------|----------------||
-----------------------------------|----------------||
--7-7-7-7-7-7-7-7------------------|----------------||
-----------------------------------|----------------||
-----------------------------------|----------------||
------------------0----0-0---0-0---|--0-0-0-0-0-0-0-||





Comments


Popular Vehemence tabs & chords
Alone In Your Presence Tabs
By Your Bedside 1 Tabs
I Take Your Life Tabs
Kill For God Tabs
Last Fantasy Of Christ (Intro) Tabs
Last Fantasy Of Christ Intro 1 Tabs
Made For Her Jesus (Intro) Tabs
Spirit Of The Soldier Intro Tabs
Spirit Of The Soldier Intro 1 Tabs
We Are All Dying Tabs


Song lyrics



↑ Back to top | Tablatures and chords are parodies/interpretations of the original songs. You may use it for private study, scholarship, research or language learning purposes only
© 2014 AZChords.com Contact us | Privacy policy | DMCA | Add/correct tabs | Request tabs | Top 50 tabs