>
 >
Life Is Beautiful

Life Is Beautiful Guitar Tabs

Vega4 - Life Is Beautiful chords, tabs, tablatures, lyrics

Guitar lessons | Add/correct | Request | Top 50 tabs Artists:  A B C D E F G H I J K L M N O P Q R S T U V W X Y Z 0-9

Life Is Beautiful Guitar Tabs – Vega4

CD, Sheet music, Poster

Do you like Life Is Beautiful? Share with your friends now
Bass TabsChordsChords v2TabsTabs v2Ukulele





Vega 4 recently broke up - tis a pity really. They were a fantastic band, 
one of my favourites. I was lucky that I got to see them play live. 

Open to suggestions and please rate!



Intro - Lead Guitar

e------------------------------------------------------||
b------------------------------------------------------||
g------------------------------------------------------||   PLAY TWICE
d----11-11-11-11-/-9-9-9--/-6-6-6-6-/-7-7-7--0---------||
a-0----------------------------------------------------||
e------------------------------------------------------||

Intro - rhythm

e--------------------------|------------------|------------------------|
b--------------------------|------------------|------------------------|
g--------------------------|------------------|------------------------|
d--11-11-11-11-11-11-11-11-|--9-9-9-9-9-9-9-9-|--7-7-7-7-7-7-7-7-------|
a--x--x--x--x--x--x--x--x--|--x-x-x-x-x-x-x-x-|--x-x-x-x-x-x-x-x-------|
e--9--9--9--9--9--9--9--9--|--7-7-7-7-7-7-7-7-|--5-5-5-5-5-5-5-5-------|

e-----------------------------------||
b-----------------------------------||
g--7-7-7-7-7-7-7-7--- PLAY ---------||
d--x-x-x-x-x-x-x-x---- TWICE -------||
a--5-5-5-5-5-5-5-5------------------||
e-----------------------------------||


Verse 1 - lead guitar (00:22)

e--21---19----17-|-----21----19-----------||
b-----17----17---|--17----17-------22-----||
g----------------|--------------21--------||
d----------------|------------------------||
a----------------|------------------------||
e----------------|------------------------||

Verse 1 - rhythm

e--------------------------|------------------|------------------------|
b--------------------------|------------------|------------------------|
g--------------------------|------------------|------------------------|
d--11-11-11-11-11-11-11-11-|--9-9-9-9-9-9-9-9-|--7-7-7-7-7-7-7-7-------|
a--x--x--x--x--x--x--x--x--|--x-x-x-x-x-x-x-x-|--x-x-x-x-x-x-x-x-------|
e--9--9--9--9--9--9--9--9--|--7-7-7-7-7-7-7-7-|--5-5-5-5-5-5-5-5-------|

e-----------------------------------||
b-----------------------------------||
g--7-7-7-7-7-7-7-7--- PLAY ---------||
d--x-x-x-x-x-x-x-x---- TWICE -------||
a--5-5-5-5-5-5-5-5------------------||
e-----------------------------------||


00:41 - Bridge lead guitar

e----------12--|---------9---------------||
b-------10-----|------10------ PLAY -----||
g----11--------|----9--------- BOTH -----||
d--------------|--0----------- RIFFS ----||
a--0-----------|-------------- TWICE ----||
e--------------|-------------------------||

00:41 - rhythm guitar

e------------------|------------------|
b------------------|------------------|
g------------------|------------------|
d--7-7-7-7-7-7-7-7-|--6-6-6-6-6-6-6-6-|
a--x-x-x-x-x-x-x-x-|--x-x-x-x-x-x-x-x-|
e--5-5-5-5-5-5-5-5-|--4-4-4-4-4-4-4-4-|

e------------------|-------------------------------------||
b------------------|------------------------PLAY---------||
g------------------|--7-7-7-7-7-7-7-7--------THIS--------||
d--7-7-7-7-7-7-7-7-|--x-x-x-x-x-x-x-x---------TWICE------||
a--x-x-x-x-x-x-x-x-|--5-5-5-5-5-5-5-5--------------------||
e--5-5-5-5-5-5-5-5-|-------------------------------------||

00:59

e-------------------|-----------------------|---------------------------|
b-------------------|-----------------------|---------------------------|
g-------------------|-----------------------|---------------------------|
d--6-6-6-6--7-7-7-7-|--9-9-9-9--11-11-11-11-|-11-11-11-11-11-11-11-11---|
a--x-x-x-x--x-x-x-x-|--x-x-x-x--x--x--x--x--|--x--x--x--x--x--x--x--x---|
e--4-4-4-4--5-5-5-5-|--7-7-7-7--9--9--9--9--|--9--9--9--9--9--9--9--9---|

e------------------------------------------------------||
b------------------------------------------------------||
g---------------------------------------PLAY-----------||
d--12--12--12--12--12--12--12--12---------THIS---------||
a--x---x---x---x---x---x---x---x------------TWICE------||
e--10--10--10--10--10--10--10--10----------------------||

01:18 - lead guitar chorus

e------------------------------4-4------------|
b------------------------------5-5------------|
g--4-6-6--4-6-6--4-6-6--4-6-6------6-6--------|
d---------------------------------------------|
a---------------------------------------------|
e---------------------------------------------|


e------------------------------4-4------------|
b------------------------------7-7------------|
g--4-6-6--4-6-6--4-6-6--4-6-6------6-6--------|
d---------------------------------------------|
a---------------------------------------------|
e---------------------------------------------|


e------------------------------4-4------------|
b------------------------------5-5------------|
g--4-6-6--4-6-6--4-6-6--4-6-6------6-6--------|
d---------------------------------------------|
a---------------------------------------------|
e---------------------------------------------|

e------------------------------4-4------------||
b------------------------------7-7------------||
g--4-6-6--4-6-6--4-6-6--4-6-6------6-6--------||   PLAY TWICE
d---------------------------------------------||
a---------------------------------------------||
e---------------------------------------------||

01:18 - rhythm guitar chorus

e--------------|--------------------------||
b--------------|--------------------------||
g--------------|-----------------PLAY-----||
d--11-11-11-11-|-11-11-11-11------TWICE---||
a--x--x--x--x--|-x--x--x--x---------------||
e--9--9--9--9--|-9--9--9--9---------------||

e-----------|-----------------------------||
b-----------|-----------------------------||
g-----------|----------------PLAY---------||
d--9-9-9-9--|-9-9-9-9---------TWICE-------||
a--x-x-x-x--|-x-x-x-x---------------------||
e--7-7-7-7--|-7-7-7-7---------------------||

e-----------|-----------------------------||
b-----------|-----------------------------||
g-----------|---------------PLAY----------||
d--7-7-7-7--|-7-7-7-7--------TWICE--------||
a--x-x-x-x--|-x-x-x-x---------------------||
e--5-5-5-5--|-5-5-5-5---------------------||

e---------------|-------------------------||
b---------------|-------------------------||
g---------------|----------------PLAY-----||
d--11-11-11-11--|-11-11-11-11-----FOUR----||
a--x--x--x--x---|-x--x--x--x-------TIMES--||
e--9--9--9--9---|-9--9--9--9--------------||

e-----------|-----------------------------||
b-----------|-----------------------------||
g-----------|----------------PLAY---------||
d--9-9-9-9--|-9-9-9-9---------TWICE-------||
a--x-x-x-x--|-x-x-x-x---------------------||
e--7-7-7-7--|-7-7-7-7---------------------||

e-----------|-----------------------------||
b-----------|-----------------------------||
g-----------|-----------------PLAY--------||
d--7-7-7-7--|-7-7-7-7----------TWICE------||
a--x-x-x-x--|-x-x-x-x---------------------||
e--5-5-5-5--|-5-5-5-5---------------------||

e-----------|----------|-----------|-------------||
b-----------|----------|-----------|-------------||
g-----------|----------|-----------|-------------||
d--6-6-6-6--|-6-6-6-6--|--7-7-7-7--|-7-7-7-7-----||
a--x-x-x-x--|-x-x-x-x--|--x-x-x-x--|-x-x-x-x-----||
e--4-4-4-4--|-4-4-4-4--|--5-5-5-5--|-5-5-5-5-----||


PLAYED AT 1:51

e--------------------------|---------------------------------------------|
b--10-10-10-10-10-10-10-10-|--9-9-9-9-9-9-9-9-------IN THIS BAR----------|
g--x--x--x--x--x--x--x--x--|--x-x-x-x-x-x-x-x------GRADUALLY BEND--------|
d--7--7--7--7--7--7--7--7--|--7-7-7-7-7-7-7-7------EACH 'G#' NOTE -------|
a--------------------------|--------------------(THE 9'S ON B STRING)----|
e--------------------------|---------------UP A SEMITONE TO 'A'(FRET 10)-|


Intro - Lead Guitar 01:56

e------------------------------------------------------|
b------------------------------------------------------|
g------------------------------------------------------|   PLAY ONCE
d----11-11-11-11-/-9-9-9--/-6-6-6-6-/-7-7-7--0---------|
a-0----------------------------------------------------|
e------------------------------------------------------|

Intro - rhythm 01:56

e--------------------------|------------------|------------------------|
b--------------------------|------------------|------------------------|
g--------------------------|------------------|------------------------|
d--11-11-11-11-11-11-11-11-|--9-9-9-9-9-9-9-9-|--7-7-7-7-7-7-7-7-------|
a--x--x--x--x--x--x--x--x--|--x-x-x-x-x-x-x-x-|--x-x-x-x-x-x-x-x-------|
e--9--9--9--9--9--9--9--9--|--7-7-7-7-7-7-7-7-|--5-5-5-5-5-5-5-5-------|

e------------------------|
b------------------------|
g--7-7-7-7-7-7-7-7-------|
d--x-x-x-x-x-x-x-x-------|
a--5-5-5-5-5-5-5-5-------|
e------------------------|


Verse 2 - lead guitar (02:06)

e--21---19----17-|-----21----19-----------||
b-----17----17---|--17----17-------22-----||
g----------------|--------------21--------||
d----------------|------------------------||
a----------------|------------------------||
e----------------|------------------------||


Verse 2 - rhythm (02:06)

e--------------------------|------------------|------------------------|
b--------------------------|------------------|------------------------|
g--------------------------|------------------|------------------------|
d--11-11-11-11-11-11-11-11-|--9-9-9-9-9-9-9-9-|--7-7-7-7-7-7-7-7-------|
a--x--x--x--x--x--x--x--x--|--x-x-x-x-x-x-x-x-|--x-x-x-x-x-x-x-x-------|
e--9--9--9--9--9--9--9--9--|--7-7-7-7-7-7-7-7-|--5-5-5-5-5-5-5-5-------|

e-----------------------------------||
b-----------------------------------||
g--7-7-7-7-7-7-7-7--- PLAY ---------||
d--x-x-x-x-x-x-x-x---- TWICE -------||
a--5-5-5-5-5-5-5-5------------------||
e-----------------------------------||


02:24 - Bridge lead guitar

e----------12--|---------9---------------||
b-------10-----|------10------ PLAY -----||
g----11--------|----9--------- BOTH -----||
d--------------|--0----------- RIFFS ----||
a--0-----------|-------------- TWICE ----||
e--------------|-------------------------||

02:24 - rhythm guitar

e------------------|------------------|
b------------------|------------------|
g------------------|------------------|
d--7-7-7-7-7-7-7-7-|--6-6-6-6-6-6-6-6-|
a--x-x-x-x-x-x-x-x-|--x-x-x-x-x-x-x-x-|
e--5-5-5-5-5-5-5-5-|--4-4-4-4-4-4-4-4-|

e------------------|-------------------------------------||
b------------------|------------------------PLAY---------||
g------------------|--7-7-7-7-7-7-7-7--------THIS--------||
d--7-7-7-7-7-7-7-7-|--x-x-x-x-x-x-x-x---------TWICE------||
a--x-x-x-x-x-x-x-x-|--5-5-5-5-5-5-5-5--------------------||
e--5-5-5-5-5-5-5-5-|-------------------------------------||

02:43

e-------------------|-----------------------|---------------------------|
b-------------------|-----------------------|---------------------------|
g-------------------|-----------------------|---------------------------|
d--6-6-6-6--7-7-7-7-|--9-9-9-9--11-11-11-11-|--11-11-11-11-11-11-11-11--|
a--x-x-x-x--x-x-x-x-|--x-x-x-x--x--x--x--x--|--x--x--x--x--x--x--x--x---|
e--4-4-4-4--5-5-5-5-|--7-7-7-7--9--9--9--9--|--9--9--9--9--9--9--9--9---|

e------------------------------------------------------||
b------------------------------------------------------||
g---------------------------------------PLAY-----------||
d--12--12--12--12--12--12--12--12---------THIS---------||
a--x---x---x---x---x---x---x---x------------TWICE------||
e--10--10--10--10--10--10--10--10----------------------||

03:02 - lead guitar chorus

e------------------------------4-4------------|
b------------------------------5-5------------|
g--4-6-6--4-6-6--4-6-6--4-6-6------6-6--------|
d---------------------------------------------|
a---------------------------------------------|
e---------------------------------------------|


e------------------------------4-4------------|
b------------------------------7-7------------|
g--4-6-6--4-6-6--4-6-6--4-6-6------6-6--------|
d---------------------------------------------|
a---------------------------------------------|
e---------------------------------------------|


e------------------------------4-4------------|
b------------------------------5-5------------|
g--4-6-6--4-6-6--4-6-6--4-6-6------6-6--------|
d---------------------------------------------|
a---------------------------------------------|
e---------------------------------------------|

e------------------------------4-4------------||
b------------------------------7-7------------||
g--4-6-6--4-6-6--4-6-6--4-6-6------6-6--------||   PLAY TWICE
d---------------------------------------------||
a---------------------------------------------||
e---------------------------------------------||

PLAYED AT 03:35

e--------------------------|---------------------------------------------|
b--10-10-10-10-10-10-10-10-|--9-9-9-9-9-9-9-9-------IN THIS BAR----------|
g--x--x--x--x--x--x--x--x--|--x-x-x-x-x-x-x-x------GRADUALLY BEND--------|
d--7--7--7--7--7--7--7--7--|--7-7-7-7-7-7-7-7------EACH 'G#' NOTE -------|
a--------------------------|--------------------(THE 9'S ON B STRING)----|
e--------------------------|---------------UP A SEMITONE TO 'A'(FRET 10)-|


03:02 - rhythm guitar chorus

e--------------|--------------------------||
b--------------|--------------------------||
g--------------|-----------------PLAY-----||
d--11-11-11-11-|-11-11-11-11------TWICE---||
a--x--x--x--x--|-x--x--x--x---------------||
e--9--9--9--9--|-9--9--9--9---------------||

e-----------|-----------------------------||
b-----------|-----------------------------||
g-----------|----------------PLAY---------||
d--9-9-9-9--|-9-9-9-9---------TWICE-------||
a--x-x-x-x--|-x-x-x-x---------------------||
e--7-7-7-7--|-7-7-7-7---------------------||

e-----------|-----------------------------||
b-----------|-----------------------------||
g-----------|---------------PLAY----------||
d--7-7-7-7--|-7-7-7-7--------TWICE--------||
a--x-x-x-x--|-x-x-x-x---------------------||
e--5-5-5-5--|-5-5-5-5---------------------||

e---------------|-------------------------||
b---------------|-------------------------||
g---------------|----------------PLAY-----||
d--11-11-11-11--|-11-11-11-11-----FOUR----||
a--x--x--x--x---|-x--x--x--x-------TIMES--||
e--9--9--9--9---|-9--9--9--9--------------||

e-----------|-----------------------------||
b-----------|-----------------------------||
g-----------|----------------PLAY---------||
d--9-9-9-9--|-9-9-9-9---------TWICE-------||
a--x-x-x-x--|-x-x-x-x---------------------||
e--7-7-7-7--|-7-7-7-7---------------------||

e-----------|-----------------------------||
b-----------|-----------------------------||
g-----------|-----------------PLAY--------||
d--7-7-7-7--|-7-7-7-7----------TWICE------||
a--x-x-x-x--|-x-x-x-x---------------------||
e--5-5-5-5--|-5-5-5-5---------------------||

e-----------|----------|-----------|-------------||
b-----------|----------|-----------|-------------||
g-----------|----------|-----------|-------------||
d--6-6-6-6--|-6-6-6-6--|--7-7-7-7--|-7-7-7-7-----||
a--x-x-x-x--|-x-x-x-x--|--x-x-x-x--|-x-x-x-x-----||
e--4-4-4-4--|-4-4-4-4--|--5-5-5-5--|-5-5-5-5-----||


03:40

e-------------------|-----------------------|---------------------------|
b-------------------|-----------------------|---------------------------|
g-------------------|-----------------------|---------------------------|
d--6-6-6-6--7-7-7-7-|--9-9-9-9--11-11-11-11-|--11-11-11-11-11-11-11-11--|
a--x-x-x-x--x-x-x-x-|--x-x-x-x--x--x--x--x--|--x--x--x--x--x--x--x--x---|
e--4-4-4-4--5-5-5-5-|--7-7-7-7--9--9--9--9--|--9--9--9--9--9--9--9--9---|

e------------------------------------------------------||
b------------------------------------------------------||
g---------------------------------------PLAY-----------||
d--12--12--12--12--12--12--12--12---------THIS---------||
a--x---x---x---x---x---x---x---x------------TWICE------||
e--10--10--10--10--10--10--10--10----------------------||

lead guitar - (03:49)

e------------------|---------------------||
b------------------|---------------------||
g--13--13--13--13--|-11-11-11-11---------||
d---x---x---x---x--|-x--x--x--x----------||
a--11--11--11--11--|-9--9--9--9----------||
e------------------|---------------------||

e-------------------------------------|
b---------------------- PLAY ---------|
g--13--13--13--13------- JUST --------|
d---x---x---x---x-------  THIS -------|
a--11--11--11--11------ FOUR TIMES ---|
e-------------------------------------|

e------------------|------------------|
b------------------|------------------|
g--14--14--14--14--|-14--14--14--14---|
d--x---x---x---x---|-x---x---x---x----|
a--12--12--12--12--|-12--12--12--12---|
e------------------|------------------|

03:58

e--------------|--------------------------||
b--------------|--------------------------||
g--------------|---------------PLAY-------||
d--7--7--7--7--|-7--7--7--7----TWICE------||
a--x--x--x--x--|-x--x--x--x---------------||
e--5--5--5--5--|-5--5--5--5---------------||

e-----------|-----------------------------||
b-----------|-----------------------------||
g-----------|----------------PLAY---------||
d--6-6-6-6--|-6-6-6-6---------TWICE-------||
a--x-x-x-x--|-x-x-x-x---------------------||
e--4-4-4-4--|-4-4-4-4---------------------||

e---------------|-----------------------------||
b---------------|-----------------------------||
g---------------|---------------PLAY----------||
d--12-12-12-12--|-12-12-12-12--------TWICE----||
a--x--x--x--x---|-x--x--x--x------------------||
e--10-10-10-10--|-10-10-10-10-----------------||

e---------------|
b---------------|
g---------------|
d--11-11-11-11--|
a--x--x--x--x---|
e--9--9--9--9---|


04:18 - lead guitar chorus

e------------------------------4-4------------|
b------------------------------5-5------------|
g--4-6-6--4-6-6--4-6-6--4-6-6------6-6--------|
d---------------------------------------------|
a---------------------------------------------|
e---------------------------------------------|


e------------------------------4-4------------|
b------------------------------7-7------------|
g--4-6-6--4-6-6--4-6-6--4-6-6------6-6--------|
d---------------------------------------------|
a---------------------------------------------|
e---------------------------------------------|


e------------------------------4-4------------|
b------------------------------5-5------------|
g--4-6-6--4-6-6--4-6-6--4-6-6------6-6--------|
d---------------------------------------------|
a---------------------------------------------|
e---------------------------------------------|

e------------------------------4-4------------||
b------------------------------7-7------------||
g--4-6-6--4-6-6--4-6-6--4-6-6------6-6--------||   PLAY THRICE
d---------------------------------------------||
a---------------------------------------------||
e---------------------------------------------||



04:18 - rhythm guitar chorus (play three times)

e--------------|--------------------------||
b--------------|--------------------------||
g--------------|-----------------PLAY-----||
d--11-11-11-11-|-11-11-11-11------TWICE---||
a--x--x--x--x--|-x--x--x--x---------------||
e--9--9--9--9--|-9--9--9--9---------------||

e-----------|-----------------------------||
b-----------|-----------------------------||
g-----------|----------------PLAY---------||
d--9-9-9-9--|-9-9-9-9---------TWICE-------||
a--x-x-x-x--|-x-x-x-x---------------------||
e--7-7-7-7--|-7-7-7-7---------------------||

e-----------|-----------------------------||
b-----------|-----------------------------||
g-----------|---------------PLAY----------||
d--7-7-7-7--|-7-7-7-7--------TWICE--------||
a--x-x-x-x--|-x-x-x-x---------------------||
e--5-5-5-5--|-5-5-5-5---------------------||

e---------------|-------------------------||
b---------------|-------------------------||
g---------------|----------------PLAY-----||
d--11-11-11-11--|-11-11-11-11-----FOUR----||
a--x--x--x--x---|-x--x--x--x-------TIMES--||
e--9--9--9--9---|-9--9--9--9--------------||

e-----------|-----------------------------||
b-----------|-----------------------------||
g-----------|----------------PLAY---------||
d--9-9-9-9--|-9-9-9-9---------TWICE-------||
a--x-x-x-x--|-x-x-x-x---------------------||
e--7-7-7-7--|-7-7-7-7---------------------||

e-----------|-----------------------------||
b-----------|-----------------------------||
g-----------|-----------------PLAY--------||
d--7-7-7-7--|-7-7-7-7----------TWICE------||
a--x-x-x-x--|-x-x-x-x---------------------||
e--5-5-5-5--|-5-5-5-5---------------------||

PLAYED AT 4:32

e--------------------------|---------------------------------------------|
b--10-10-10-10-10-10-10-10-|--9-9-9-9-9-9-9-9-------IN THIS BAR----------|
g--x--x--x--x--x--x--x--x--|--x-x-x-x-x-x-x-x------GRADUALLY BEND--------|
d--7--7--7--7--7--7--7--7--|--7-7-7-7-7-7-7-7------EACH 'G#' NOTE -------|
a--------------------------|--------------------(THE 9'S ON B STRING)----|
e--------------------------|---------------UP A SEMITONE TO 'A'(FRET 10)-|


e--------------------------------------------||
b---------------------TAB--------------------||
g------------------DEDICATED-----------------||
d-----------------TO EADAOIN-----------------||
a--------------------XXXX--------------------||
e--------------------------------------------||


WOW that took ages!! ENJOY IT great song!!
comments but constructive criticism only please.

10.04.08





Comments


Popular Vega4 tabs & chords
Life Is Beautiful Bass Tabs
Life Is Beautiful Chords
Life Is Beautiful 1 Chords
The Caterpillar Song Chords
Bullets Tabs
If This Is It Tabs
Life Is Beautiful 1 Tabs
Life Is Beautiful Intro Tabs
Life Is Beautiful Ukulele
The Caterpillar Song Ukulele


Song lyrics



↑ Back to top | Tablatures and chords are parodies/interpretations of the original songs. You may use it for private study, scholarship, research or language learning purposes only
© 2014 AZChords.com Contact us | Privacy policy | DMCA | Add/correct tabs | Request tabs | Top 50 tabs