» » »

Vega4, Life Is Beautiful Bass tabs (ver.1)

Artists:  A B C D E F G H I J K L M N O P Q R S T U V W X Y Z # 

Life Is Beautiful Bass tabs (ver.1)

Vega4 Tabs
 Rating:
4/5 (4 votes)
Life Is Beautiful lessons Tabs too difficult? Try these video lessons and learn fast
                ----------------------------------------------------------------------------
                          Vega4 - Life Is Beautiful
----------------------------------------------------------------------------
0.00 Intro - no bass

Bass enters: 0.40 Verse
G|---------------------|
D|---------------------|
A|---------------------|
E|-9-9-9-9-9-9-9-9-9-9-| Until:

0.59 Pre Chorus
G|-------------------------------------------------------------------------|
D|-------------------------------------------------------------------------|
A|-------------------------------------------------------------------------|
E|-4-4-4-4-5-5-5-5-7-7-7-7-9-9-9-9-9-9-9-9-9-9-9-9-10-10-10-10-10-10-10-10-| X2

1.17 Chorus                         ______
G|-------------------|                    |
D|-------------------|                    |
A|-------------------|                    |
E|-9-9-9-9-9-9-9-9-9-| X2                 |
                                          | 
G|-------------------|                    |
D|-------------------|                    |
A|-------------------|                    |  All X2
E|-7-7-7-7-7-7-7-7-7-| X2                 |
                                          |
G|-------------------|                    |
D|-------------------|                    |
A|-------------------|                    |
E|-5-5-5-5-5-5-5-5-5-| X2                 |
                                          |
G|-------------------|                    |
D|-------------------|                    |
A|-5-5-5-5-5-5-5-5-5-|                    |
E|-------------------| X2                 |
                                    ______

G|-------------------|                    
D|-------------------|                    
A|-------------------|                    
E|-4-4-4-4-4-4-4-4-4-| X2

G|-------------------|                    
D|-------------------|                    
A|-------------------|                    
E|-5-5-5-5-5-5-5-5-5-| X2  

1.55 Bridge - no bass

2.04 Verse 2
G|-----------------------------------------------------------------|
D|-----------------------------------------------------------------|
A|-------------------------------------------------5-5-5-5-5-5-5-5-|
E|-9-9-9-9-9-9-9-9-7-7-7-7-7-7-7-7-5-5-5-5-5-5-5-5-----------------| X2

G|-----------------------------------------------------------------|
D|-----------------------------------------------------------------|
A|-------------------------------------------------5-5-5-5-5-5-5-5-|
E|-5-5-5-5-5-5-5-5-4-4-4-4-4-4-4-4-5-5-5-5-5-5-5-5-----------------| X2

2.42 Pre Chorus - Same as above

3.02 Chorus                         ______
G|-------------------|                    |
D|-------------------|                    |
A|-------------------|                    |
E|-9-9-9-9-9-9-9-9-9-| X2                 |
                                          | 
G|-------------------|                    |
D|-------------------|                    |
A|-------------------|                    |  All X2
E|-7-7-7-7-7-7-7-7-7-| X2                 |
                                          |
G|-------------------|                    |
D|-------------------|                    |
A|-------------------|                    |
E|-5-5-5-5-5-5-5-5-5-| X2                 |
                                          |
G|-------------------|                    |
D|-------------------|                    |
A|-5-5-5-5-5-5-5-5-5-|                    |
E|-------------------| X2                 |
                                    ______
  
G|-------------------------------------------------------------------------|
D|-------------------------------------------------------------------------|
A|-------------------------------------------------------------------------|
E|-4-4-4-4-5-5-5-5-7-7-7-7-9-9-9-9-9-9-9-9-9-9-9-9-10-10-10-10-10-10-10-10-| X2

3.57 Bridge - no bass

4.16 Ending                         ______
G|-------------------|                    |
D|-------------------|                    |
A|-------------------|                    |
E|-9-9-9-9-9-9-9-9-9-| X2                 |
                                          | 
G|-------------------|                    |
D|-------------------|                    |
A|-------------------|                    |  Repeat until end
E|-7-7-7-7-7-7-7-7-7-| X2                 |
                                          |
G|-------------------|                    |
D|-------------------|                    |
A|-------------------|                    |
E|-5-5-5-5-5-5-5-5-5-| X2                 |
                                          |
G|-------------------|                    |
D|-------------------|                    |
A|-5-5-5-5-5-5-5-5-5-|                    |
E|-------------------| X2                 |
                                    ______
            
Submit corrections

comments powered by Disqus
↑ Back to top | Vega4 Bass for Life Is Beautiful. Lyrics for acoustic guitar and electric guitar. Tablatures and chords are parodies/interpretations of the original songs. You may use it for private study, scholarship, research or language learning purposes only