» » »

Puerto Rico Tabs (ver.1)

Artists:  A B C D E F G H I J K L M N O P Q R S T U V W X Y Z # 

Puerto Rico Tabs (ver.1)

Vaya Con Dios
Rating:
5/5 (2 votes)

Hard to play? Try these video lessons and learn fast.
                

 Vaya con Dios - Puerto Rico


Tunning E A D G B E


  intro


    Dm                      Am
E|---1----------------------0-----------------------------|
B|---3-listen for rhytam----1-----------------------------|
G|---2----------------------2-----------------------------|
D|---0----------------------2-----------------------------|
A|--------------------------0-----------------------------|
E|--------------------------------------------------------|


E|-------------------------------------------------8-------------------|
B|-8/1010101010101010-8-6-6/8-888---8-10------10-11-11-10-8-1010101010-|
G|--------------------------------10-----77----------------------------|
D|---------------------------------------------------------------------|
A|---------------------------------------------------------------------|
E|---------------------------------------------------------------------|


E|----------------------------------------10-12-13-12-10--10----------------------------------|
B|-8/1010101010101010-8--------------10-13--------------13--11-13-11-10-10--------------------|
G|----------------------10-10/12---12---------------------------------------9-10-9---12-10-9--|
D|---------------------------------fast>>>--------------------------<------|   2x
G|-----------------------7-7----7------------------------------|
D|----------------------7--------------------------------------|
A|---------------------5---------------------------------------|
E|-------------------------------------------------------------|


  Dm                    Am                           Dm Am
Wake up Angelita, your mama just turned off the light
  Dm                    Am                     Dm Am
Manolo is already waiting by the old water-pipe
  Dm                    Am                             Dm Am
Her shoes in one hand she carefully walks down the stairs
  Dm                    Am                                  Dm Am
Holding her breath 'cause there's danger and love in the air.


Aie aie aie aie aie aie Puerto Rico
Aie aie aie aie aie aie Puerto Rico


E|-------6-5--8-6-5-----------------------6-5--5-6-6/8-------------------|
B|----6--------------------------------6---------------------------------|
G|---7-7----7---------second time-----7-7----7---------------------------|
D|--7--------------------------------7-----------------------------------|
A|-5--------------------------------5------------------------------------|
E|-----------------------------------------------------------------------|

  C              Hmaj    C              Hmaj
Your papa will beat him if he ever finds out
  C                Am                       Em
Begging the Virgin won't help when you hear Manolito shout,
  C            Em
Manolito shout
 Am            Dm      Am               Dm
He's already standing under the starlit sky
  Am                         Dm                      Am            Dm
You run to his arms and you laugh and you cry as he holds you tight


    C            Hmaj           Am      Em
E|--8------------7--------------5--------7------------------------|
B|--8------------7--------------5--------8------------------------|
G|--9--listen----8--------------5--------9------------------------|
D|--10-----------9--------------7--------9------------------------|
A|--10-----------9--------------7--------7------------------------|
E|--8------------7--------------5---------------------------------|

Aie aie aie aie aie aie Puerto Rico
Aie aie aie aie aie aie Puerto Rico


  Before solo

E|-------6-5--8-6-5-----------------------6-5--5-6---56-8-10-12-13-12-10(10)--------|
B|----6--------------------------------6--------------------------------------------|
G|---7-7----7-------------------------7-7----7--------------------------------------|
D|--7--------------------------------7----------------------------------------------|
A|-5--------------------------------5-----------------------------------------------|
E|----------------------------------------------------------------------------------|

   Solo

E|-------------------------------------------------------------------------------------|
B|-6-8-1010-6-8-6------------10-11-13131313---11-10-1110--10---------------------------|
G|-7-------9-----9-7---7-9-10---------------------------12-----------------------------|
D|-7-------------------fast>>--------<>-----<
        
Hard to play? Try these video lessons and learn fast. | Correct




comments powered by Disqus
↑ Back to top | Tablatures and chords are parodies/interpretations of the original songs. You may use it for private study, scholarship, research or language learning purposes only