>
 >
Farewell Song

Farewell Song Guitar Tabs

Vaya Con Dios - Farewell Song chords, tabs, tablatures, lyrics

Guitar lessons | Add/correct | Request | Top 50 tabs Artists:  A B C D E F G H I J K L M N O P Q R S T U V W X Y Z 0-9

Farewell Song Guitar Tabs – Vaya Con Dios

CD, Sheet music, Poster

Do you like Farewell Song? Share with your friends now
Tabs

Vaya Con Dios - Farewell Song

Tunning E A D G B E


    Darling now....

E|------------------------------------------------------------|
B|-----------1-----0------------------------------------------|
G|--------2--2--0--0------------------------------------------|
D|--------2--2--0--0------------------------------------------|
A|-----00-----------------------------------------------------|
E|-0h3-----xx--x----------------------------------------------|


     The moon is....               ..on haunting ground
E|--------------(1)-------------------------------------------------------|
B|--------3---3--2--------------------------------------------------------|
G|--------2---2--3------Listen how---------------3-3-(3)-listen-----------|
D|-----00----------------------------------------3-3-(3)------------------|
A|-0h3------x--x---------------------------------1------------------------|
E|------------------------------------------------------------------------|

    ..my pack is waitnig..
E|----------------------------------------------------------|
B|----------------------------------------------------------|
G|----------------------------------------------------------|
D|---------------2-2..--------------------------------------|
A|---------------2-2..--------------------------------------|
E|---------------0------------------------------------------|

   We will never no why...        ...chosen that way

       Am                                        F
E|-----(0)---------------------------------------1--------|
B|------1----------------------------------------1--------|
G|------2----------------------------------------2--------|
D|------2----------------------------------------3--------|
A|-----(0)---------------------------------------3--------|
E|-----------------------------------------------1--------|

   ..to perform all the rights  ..to turn love into hate

                           Dm                        E

E|-------------------------5-------------------------0----|
B|-------------------------6-------------------------0----|
G|-------------------------7-------------------------1----|
D|-------------------------7-------------------------2----|
A|-------------------------5-------------------------2----|
E|---------------------------------------------------0----|

...I won't cover my face...

   solo


E|-----------------------------------------------------------------------|
B|---------------------------5-------------------------------------------|
G|-----5--7777p577---7b8r7----7-5---5-5----------------------------------|
D|----7---------------------------7--7-7\--------------------------------|
A|---7-------------------------------------------------------------------|
E|--5--------------------------------------------------------------------|

    Am

E|----------8----------8--------------------------------------------------------|
B|-----8-10--10-10-8-10------8-10-8--10-10-8-10-10------------------------------|
G|-5/9-------------------5/9----------------------------------------------------|
D|------------------------------------------------------------------------------|
A|------------------------------------------------------------------------------|
E|------------------------------------------------------------------------------|
  Dm

E|----8-10-8-10-8-10-8-10-8---10h11p10-8-10-8--------------2X-------------|
B|-10---------------------------------------------------------------------|
G|------------------------------------------------------------------------|
D|------------------------------------------------------------------------|
A|------------------------------------------------------------------------|
E|------------------------------------------------------------------------|


    Bb5                      E

E|----------6-2/4---------------------------------------------|
B|--------6-------8-6-------------8-8-------------------------|
G|----5/7----------------7---9-7------------------------------|
D|--8-----------------8---------9-----------------------------|
A|------------------------------------------------------------|
E|------------------------------------------------------------|

                    Am
E|----------------------------------------------------------|
B|----------------------------------------------------------|
G|-9p7------------------------------------------------------|
D|----9-8-7--5----------------------------------------------|
A|-------------7-5------------------------------------------|
E|-----------------5----------------------------------------|
        end solo

...you can call me a liar..     ..try to put me a shame

E|-------------------------------------------------------------------------|
B|--------------------------9/10-----------------------9/10----listen------|
G|--------------------------8/9------------------------9/10----------------|
D|-------------------------------------------------------------------------|
A|-------------------------------------------------------------------------|
E|-------------------------------------------------------------------------|

   ..no I have no desire..   ..to live my life..

E|-----------------------------------------------11/12----------------|
B|------------------------9/10-------------------11/12-----listen-----|
G|------------------------6/7-----------------------------------------|
D|--------------------------------------------------------------------|
A|--------------------------------------------------------------------|
E|--------------------------------------------------------------------|

 Forever now....             I'am gonna loose you..

E|--------------------------------------------------------8887h8p7------|
B|---------------------------------------------------8-10---------------|
G|------------------5554h5p4------------------------9-------------------|
D|----------------7-----------------------------------------------------|
A|---------------7------------------------------------------------------|
E|--------------5-------------------------------------------------------|

This arms of mine..       ..could never soothe you

E|------------------------------------------------------------------------------|
B|------------------8h10 10 10 10-----------------------------------------------|
G|-------------------------------------------------9-7--------------------------|
D|----------------------------------------------------10-9-5--------------------|
A|--------------------------------------------------------(9)-------------------|
E|------------------------------------------------------------------------------|
              Am7/9

E|--------------3-----------------------------------------|
B|-------------1------------------------------------------|
G|------------2-------------------------------------------|
D|-----------2--------------------------------------------|
A|-------0------------------------------------------------|
E|--0-3---------------------------------------------------|

  END!!!





Comments


Popular Vaya Con Dios tabs & chords
Just A Friend Of Mine Bass Tabs
Don't Cry For Louie Chords
Just A Friend Of Mine Chords
Puerto Rico Chords
Puerto Rico 1 Chords
Still A Man Chords
What's A Woman? Chords
Nah Neh Nah 1 Tabs
Puerto Rico Tabs
Time Flies Tabs


Song lyrics



↑ Back to top | Tablatures and chords are parodies/interpretations of the original songs. You may use it for private study, scholarship, research or language learning purposes only
© 2014 AZChords.com Contact us | Privacy policy | DMCA | Add/correct tabs | Request tabs | Top 50 tabs