» » »

Just A Friend Of Mine Bass tabs (ver.1)

Artists:  A B C D E F G H I J K L M N O P Q R S T U V W X Y Z # 

Just A Friend Of Mine Bass tabs (ver.1)

Vaya Con Dios
Rating:
0/5 (0 votes)

Hard to play? Try these video lessons and learn fast.
                vaya_con_dios/just_a_friend_of_mine.btab

Basstab by Jan Bjorklund, Finland; 
You are welcome to request for basstabs!
Bienvenidos a pedirme transcripciones para el bajo!
Be sure to use a monospaced font!

TablEdited by Jan Bjorklund
Tuning : E A D G 	Time Signature: 4/4

 tempo 127       |       |        |       |       |       |        
|--------------------------------|--------------------------------|
|0-------3-------2---------------|------------------------2-------|
|------------------------3-------|0-------0-------3---------------|
|--------------------------------|--------------------------------|

 |       |       |       |        |       |       |       |        
|--------------------------------|--------------------------------|
|--------------------------------|----------------2---------------|
|----------------2---------------|0-------3---------------3-------|
|0-------3---------------3-------|--------------------------------|

 |       |       |       |        |       |       |       |        
|--------------------------------|--------------------------------|
|0-------3-------2---------------|------------------------2-------|
|------------------------3-------|0-------2-------3---------------|
|--------------------------------|--------------------------------|

 |       |       |       |        |       |       |       |        
|--------------------------------|--------------------------------|
|--------------------------------|------------------------2-------|
|------------------------2-------|0-------2-------3---------------|
|0-------0-------3---------------|--------------------------------|

 |       |       |       |        |       |       |       |        
|--------------------------------|--------------------------------|
|0-------3-------2---------------|------------------------2-------|
|------------------------3-------|0-------2-------3---------------|
|--------------------------------|--------------------------------|

 |       |       |       |        |       |       |       |        
|--------------------------------|--------------------------------|
|--------------------------------|------------------------2-------|
|------------------------2-------|0-------2-------3---------------|
|0-------0-------3---------------|--------------------------------|

 |       |       |       |        |       |       |       |        
|--------------------------------|--------------------------------|
|0-------3-------2---------------|------------------------2-------|
|------------------------3-------|0-------2-------3---------------|
|--------------------------------|--------------------------------|

 |       |       |       |        |       |       |       |        
|--------------------------------|--------------------------------|
|--------------------------------|------------------------2-------|
|------------------------2-------|0-------2-------3---------------|
|0-------0-------3---------------|--------------------------------|

 |       |       |       |        what's your name...     |        
|--------------------------------|--------------------------------|
|0-------3-------2---------------|------------------------2-------|
|------------------------3-------|0-------0-------3---------------|
|--------------------------------|--------------------------------|

 |       |       |       |        |       |       |       |        
|--------------------------------|--------------------------------|
|--------------------------------|------------------------2-------|
|----------------2---------------|0-------0-------3---------------|
|0-------3---------------3-------|--------------------------------|

 |       |       |       |        |       |       |       |        
|--------------------------------|--------------------------------|
|0-------3-------2---------------|----------------2---------------|
|------------------------3-------|0-------3---------------3-------|
|--------------------------------|--------------------------------|

 How about stickin' around        |       |       |       |        
|--------------------------------|--------------------------------|
|--------------------------------|------------------------2-------|
|----------------2---------------|0-------2-------3---------------|
|0-------3---------------3-------|--------------------------------|

 The place was dark and the band...       |       |       |        
|--------------------------------|--------------------------------|
|0-------3-------2---------------|----------------2---------------|
|------------------------3-------|0-------3---------------3-------|
|--------------------------------|--------------------------------|

 |       |       |       |        |       |       |       |        
|--------------------------------|--------------------------------|
|--------------------------------|------------------------2-------|
|------------------------2-------|0-------2-------3---------------|
|0-------0-------3---------------|--------------------------------|

 |       |       |       |        |       |       |       |        
|--------------------------------|--------------------------------|
|0-------3-------2---------------|------------------------2-------|
|------------------------3-------|0-------0-------3---------------|
|--------------------------------|--------------------------------|

 |       |       |       |        |       |       |       |        
|--------------------------------|--------------------------------|
|--------------------------------|----------------2---------------|
|------------------------2-------|0-------3---------------3-------|
|0-------0-------3---------------|--------------------------------|

 |       |       |       |        |       |       |       |        
|--------------------------------|--------------------------------|
|--------------------------------|----------------2---------------|
|----------------2---------------|0-------3---------------3-------|
|0-------3---------------3-------|--------------------------------|

 |       |       |       |        |       |       |       |        
|--------------------------------|--------------------------------|
|--------------------------------|------------------------2-------|
|------------------------2-------|0-------2-------3---------------|
|0-------0-------3---------------|--------------------------------|

 S O L O |       |       |        |       |       |       |        
|--------------------------------|--------------------------------|
|0-------3-------2---------------|------------------------2-------|
|------------------------3-------|0-------0-------3---------------|
|--------------------------------|--------------------------------|

 |       |       |       |        |       |       |       |        
|--------------------------------|--------------------------------|
|--------------------------------|------------------------2-------|
|----------------2---------------|0-------2-------3---------------|
|0-------3---------------3-------|--------------------------------|

 |       |       |       |        |       |       |       |        
|--------------------------------|--------------------------------|
|0-------3-------2---------------|------------------------2-------|
|------------------------3-------|0-------0-------3---------------|
|--------------------------------|--------------------------------|

 |       |       |       |        |       |    and so on...     
|--------------------------------|--------------------------------|
|--------------------------------|----------------2---------------|
|----------------2---------------|0-------3---------------3-------|
|0-------3---3-----------3-------|--------------------------------|
            
Hard to play? Try these video lessons and learn fast. | Correct




comments powered by Disqus
↑ Back to top | Tablatures and chords are parodies/interpretations of the original songs. You may use it for private study, scholarship, research or language learning purposes only