» » »

Vaya Con Dios, Don't Cry For Louie Bass tabs (ver.1)

Artists:  A B C D E F G H I J K L M N O P Q R S T U V W X Y Z # 

Don't Cry For Louie Bass tabs (ver.1)

Vaya Con Dios Tabs
 Rating:
4/5 (4 votes)
Don't Cry For Louie lessons Tabs too difficult? Try these video lessons and learn fast
                vaya_con_dios/don't_cry_for_louie.btab

Basstab by Jan Bjorklund, Finland; 
You are welcome to request for basstabs!
Bienvenidos a pedirme transcripciones para el bajo!
Be sure to use a monospaced font!

TablEdited by Jan Bjorklund
Tuning : E A D G 	Time Signature: 2/4

 |       |        |       |        |       |        |       |        
|----------------|------4---------|----------------|------4---------|
|--------4-------|5---------5-----|--------4-------|5---------5-----|
|7---------------|------------6---|7---------------|------------6---|
|----------------|----------------|----------------|----------------|

 |       |        |       |        |       |        |       |        
|----------------|------4---------|----------------|------4---------|
|--------4-------|5---------5-----|--------4-------|5---------5-----|
|7---------------|------------6---|7---------------|------------6---|
|----------------|----------------|----------------|----------------|

 |       |        |       |        |       |        |       |        
|----------------|------4---------|----------------|------4---------|
|--------4-------|5---------5-----|--------4-------|5---------5-----|
|7---------------|------------6---|7---------------|------------6---|
|----------------|----------------|----------------|----------------|

 |       |        |       |        |       |        |       |        
|----------------|------4---------|----------------|------4-----3---|
|--------4-------|5---------5-----|--------4-------|5---------------|
|7---------------|------------6---|7---------------|----------------|
|----------------|----------------|----------------|----------------|

 |       |        |       |        |       |        |       |        
|----------------|----------------|----------------|----------------|
|----------------|------2---------|----------------|------2---------|
|--------2-------|3---------3-----|--------2-------|3---------3-----|
|5---------------|------------4---|5---------------|------------4---|

 |       |        |       |        |       |        |       |        
|----------------|----------------|----------------|----------------|
|----------------|4---------------|----------------|4---------------|
|--------6-------|------6---------|--------6-------|------6---6-----|
|7---------------|------------7---|7---------------|------------7---|

 |       |        |       |        |       |        | and so on...    
|----------------|------4---------|----------------|------4---------|
|--------4-------|5---------5-----|--------4-------|5---------5-----|
|7---------------|------------6---|7---------------|------------6---|
|----------------|----------------|----------------|----------------|
               
            
Submit corrections

comments powered by Disqus
↑ Back to top | Vaya Con Dios Bass for Don't Cry For Louie. Lyrics for acoustic guitar and electric guitar. Tablatures and chords are parodies/interpretations of the original songs. You may use it for private study, scholarship, research or language learning purposes only