>
 >
Scuttle Buttin 1

Scuttle Buttin 1 Guitar Tabs

Vaughan Stevie Ray - Scuttle Buttin 1 chords, tabs, tablatures, lyrics

Guitar lessons | Add/correct | Request | Top 50 tabs Artists:  A B C D E F G H I J K L M N O P Q R S T U V W X Y Z 0-9

Scuttle Buttin 1 Guitar Tabs – Vaughan Stevie Ray

CD, Sheet music, Poster

Do you like Scuttle Buttin 1? Share with your friends now
Bass TabsTabsTabs v2
Lines: 279


The following song is "SCUTTLE BUTTIN'" performed by Stevie Ray Vaughan in
the album "Couldn't stand the weather". I hope there are no errors. For more 
information about the song or anything else about SRV tabs write to:



NOTATION LEGEND.

|------------|-------------|------------|------------|-------------|-----------|
|------*--*--|-----*-------|--~~~~~~~---|------------|---^---------|-----------|
|-----/---|--|----/-\------|--5---------|--5==7------|--5-7--------|--(9)------|
|----5----5--|---5---(5)---|------------|-------5==\-|-------------|-----------|
|------------|-------------|------------|------------|-------------|-----------|
|------------|-------------|------------|------------|-------------|-----------|
Bend with       Bend         Vibrato      Slide       Hammer on     Ghost note
*=h :half step  & Release                             (or Pull off)
  f :one  step
  fh:one&half
  2f:2 steps
  
|------------|
|------------|
|---3x-------|
|---3x-------|
|------------|
|------------|
Muffled notes

                       f
||--3------f----0-----/--0--^-----------|-------3---------3---3-----------3----|
||--3-----/---0----0-3-----3-0--^-------|-------3---------3---3-----------3----|
||.------2---------------------3-2--0---|--------------------------------------|
||.-----------------------------------2-|--------------------------------------|
||--------------------------------------|--------------------------------------|
||--------------------------------------|---0---------0---------------0--------|



                       f
|---3------f----0-----/--0--^-----------|-------3---------3---3-----------3----|
|---3-----/---0----0-3-----3-0--^-------|-------3---------3---3-----------3----|
|--------2---------------------3-2--0---|--------------------------------------|
|-------------------------------------2-|--------------------------------------|
|---------------------------------------|--------------------------------------|
|---------------------------------------|---0---------0---------------0--------|


                       f
|---3------f----0-----/--0--^-----------|-------3---------3---3-----------3----|
|---3-----/---0----0-3-----3-0--^-------|-------3---------3---3-----------3----|
|--------2---------------------3-2--0---|--------------------------------------|
|-------------------------------------2-|--------------------------------------|
|---------------------------------------|--------------------------------------|
|---------------------------------------|---0---------0---------------0--------|


                       f
|---3------f----0-----/--0--^-----------|-------3---------3---3-----------3----|
|---3-----/---0----0-3-----3-0--^-------|-------3---------3---3-----------3----|
|--------2---------------------3-2--0---|--------------------------------------|
|-------------------------------------2-|--------------------------------------|
|---------------------------------------|--------------------------------------|
|---------------------------------------|---0---------0---------------0--------|


                       f
|---3------f----0-----/--0--^-----------|--------------------------------------|
|---3-----/---0----0-3-----3-0--^-------|-------3---------3---3-----------3----|
|--------2---------------------3-2--0---|-------2---------2---2-----------2----|
|-------------------------------------2-|-------1---------1---1-----------1----|
|---------------------------------------|---2---------2------------------------|
|---------------------------------------|-----------------------------2--------|


 ______________________________________________________________________________
|1                                                                              |
                        f
|---------------0------/--0---^---------|----3-----------3---3-----------3x----|
|---3--3x----0-----0--3------3-0--^-^---|----3-----------3---3-----------3x----|
|---2--2x------------------------3-2-0--|-------------------------------------.|
|---1--1x------------------------------2|-------------------------------------.|
|---------------------------------------|--------------------------------------|
|---------------------------------------|--0--------0---------------0----------|


 ---------------------------------------
|2                              to Coda |
                        f
|--------f------0------/--0-0-^---------|----3-----------3---3-----------------|
|---3---/----0-----0--3------3-0--^-^---|----3-----------3---3-----------------|
|---2--2-------------------------3-2-0--|--------------------------------------|
|---1----------------------------------2|--------------------------------------|
|---------------------------------------|--------------------------------------|
|---------------------------------------|--0--------0---------------0-----0----|
     
     
                                                                     f
|----^-----------------^----------------|--------------0-------0----/-\--------|
|---3-5---5--5--5--5--3-5--5--5--5--5--5|---2----0^----0-------0---3-----------|
|---------------------------------------|--------0-1-------1-------------------|
|---------------------------------------|--------------------------------------|
|---------------------------------------|--------------------------------------|
|-0-------------------------------------|--------------------------------------|



|\---0--^-------------------------------|-------3-----------3--3--------3------|
|(3)---3-0--^---------^-----------------|-------3-----------3--3--------3------|
|----------2-0----^--2-0--^-------------|--------------------------------------|
|----------------2-0-----2-0----^---2---|--------------------------------------|
|------------------------------2-0------|--0-----------0-------------0---------|
|---------------------------------------|--------------------------------------|


     f       f      f      f     f    f       f      f       f      f      f
|---/---0---/----0-/----0-/---0-/--0-/--|--0-/----0-/-----0-/----0-/----0-/----|
|--3-------3------3------3-----3----3---|---3------3-------3------3------3-----|
|---------------------------------------|--------------------------------------|
|---------------------------------------|--------------------------------------|
|---------------------------------------|--------------------------------------|
|---------------------------------------|--------------------------------------|


       f      f     f      f
|---0-/----0-/---0-/----0-/-------------|-------3-----------3---3-----------f--|
|----3------3-----3------3----^---------|-------3-----------3---3----------/---|
|----------------------------2-0------0-|---------------------------------2----|
|----------------------------------2----|--------------------------------------|
|---------------------------------------|--------------------------------------|
|---------------------------------------|---0-----------0---------------0------|


            f
|----0-----/----0---^-------------------|--------------------------------------|
|-0----0--3--------3-0---^-------^------|-----------3---------3----3---3-------|
|-----------------------2-0--^--2-0--^--|-----------2---------2----2---2-------|
|---------------------------2-0-----2-0-|-----------1---------1----1---1-------|
|---------------------------------------|---2-------------2--------------------|
|---------------------------------------|--------------------------------------|


                                           ~~~~
|----/10---10--10-10---9----9----7------|--7-----------------------------------|
|----/12---12--12-12---10---10---8------|--8-----------2-----------------------|
|---------------------------------------|--------2-----2-----0-----------------|
|---------------------------------------|-----------2--------------2----0------|
|---------------------------------------|--------------------------------------|
|---------------------------------------|--------------------------------------|


                                                                  f
|-/12---12--12--------------------------|------f--12--12---------/--12-----f---|
|-/12---12--12---14--12--------12-------|-----/-------12---12--15---------/----|
|----------------14--12--------12-------|---14--------------------------14-----|
|-------------------------14------------|--------------------------------------|
|---------------------------------------|--------------------------------------|
|---------------------------------------|--------------------------------------|


             f  f
|12-12-12---/--|-\-------f--------------|--------------------------------------|
|12-12-12-15-(15)-15-12-|-\-------------|-------12----x-14--12-----------------|
|----------------------14-14-(14)-12----|-------12----x-14--12-----------------|
|------------------------------------14-|-14-14-------------------14--12-------|
|---------------------------------------|--------------------------------------|
|---------------------------------------|--------------------------------------|



|---------------------------------------|--------------------------------------|
|---------------------------------------|----^------^------^------^------^-----|
|-----12/13------12/13------12/13-------|--11-12--11-12--11-12--11-12--11-12---|
|-14--11/12------11/12------11/12-------|11-----11-----11-----11-----11-----11-|
|---------------------------------------|--------------------------------------|
|---------------------------------------|--------------------------------------|



|---------------------------------------|--------------------------------------|
|---^------^------^------^------^-------|----14------11/12---------------------|
|-11-12--11-12--11-12--11-12--11-12---11/13--14--14--12/13---------------------|
|------11-----11-----11-----11-----11---|--------14---------14--12--14---------|
|---------------------------------------|--------------------------------------|
|---------------------------------------|--------------------------------------|


                                                 f         ^      f      f
|-----------------------------f---------|--12---/--12----14-12---/--12--/--12--|
|-14-------12----------------/----12----|-----15---------------15-----15-------|
|-14-------13-----^--------14-----------|------------------------------------14|
|------14-------14-12-------------------|--------------------------------------|
|----------------------14---------------|--------------------------------------|
|---------------------------------------|--------------------------------------|



|---------------------------------------|------3--------3--3-------------------|
|---^-----------^----^------------------|------3--------3--3-------------------|
|--2-0-----2---2-0--2-0--^--------------|--------------------------------------|
|-------2---------------2-0---^----2----|--------------------------------------|
|----------------------------2-0--------|--------------------------------------|
|---------------------------------------|--0-------0-------------0-----0-------|


                                             h             h         h
|----/10--10---9---9---7--7-------------|---/-------7-----/------7--/----------|
|----/12--12---10--10--8--8---8---------|--8-------------8---------8-----------|
|---------------------------------------|--------------------------------------|
|---------------------------------------|--------------------------------------|
|---------------------------------------|--------------------------------------|
|--0------------------------------------|--------------------------------------|


          h          h                           h          h
|-7------/---7------/------7------------|-7----7/---------7/------7------------|
|-------8----------8------------8-------|------8----------8----------8---------|
|---------------------------------------|--------------------------------------|
|---------------------------------------|--------------------------------------|
|---------------------------------------|--------------------------------------|
|---------------------------------------|--------------------------------------|



|-10------9---------7---7----7\---------|------5-----5--/5---------------------|
|-----8--------8------------------------|---5-----8-----------8-----5----------|
|--------------------------------------4/6-------------------------------------|
|---------------------------------------|--------------------------------------|
|---------------------------------------|--------------------------------------|
|---------------------------------------|--------------------------------------|



|-5---3-------0-------------------------|-----3--------3---3---------f---------|
|-5---------------^---------------------|-----3--------3---3--------/----------|
|--------/4------1-0-----0---^----------|--------------------------2-----------|
|---------------------2-----2-0---------|--------------------------------------|
|---------------------------------------|--------------------------------------|
|---------------------------------------|--0-------0-------------0-------------|


         f
|--0----/--0-^--------------------------|--------------------------------------|
|-0--0-3----3-0--^-------^--------------|-------3---3-----3------3-------------|
|---------------2-0--^--2-0----^--------|-------2---2-----2------2-------------|
|-------------------2-0-------2-0-------|-------1---1-----1------1-------------|
|---------------------------------------|--2-----------------------------------|
|---------------------------------------|--------------------------------------|


                    f
|--------f---0-----/---0-^--------------|--------3-----------3----3------------|
|---3---/---0---0-3-----3-0--^-^--------|--------3-----------3----3------------|
|---2--2--------------------3-2-0-------|--------------------------------------|
|---1-----------------------------2-----|--------------------------------------|
|---------------------------------------|--------------------------------------|
|---------------------------------------|---0----------0-----------------------|


                              D.S al Coda
                            f
|---3---------0------/--0--^------------|
|---3---f--0-----0--3-----3-0---^-^-----|
|------/-----------------------3-2-0----|
|-----2------------------------------2--|
|---------------------------------------|
|---------------------------------------|


Coda
|----------15--------15--15-------15----|-----15-------------------------------|
|----------15--------15--15-------15----|-----15-------------------------------|
|---------------------------------------|--------------------------------------|
|---------------------------------------|--------------------------------------|
|---------------------------------------|--------------------------------------|
|---0----------0-------------0----------|--------------------------------------|





Comments


Popular Vaughan Stevie Ray tabs & chords
Crossfire 1 Bass Tabs
Look At Little Sister Bass Tabs
Pride And Joy Bass Tabs
Voodoo Chile Bass Tabs
Crossfire Tabs
I'm Cryin' 1 Tabs
Pride And Joy 1 Tabs
Rude Mood 1 Tabs
Texas Flood Intro Tabs
Traffic Jam Tabs


Song lyrics



↑ Back to top | Tablatures and chords are parodies/interpretations of the original songs. You may use it for private study, scholarship, research or language learning purposes only
© 2014 AZChords.com Contact us | Privacy policy | DMCA | Add/correct tabs | Request tabs | Top 50 tabs