>
 >
Scuttle Buttin

Scuttle Buttin Bass Tabs

Vaughan Stevie Ray - Scuttle Buttin chords, tabs, tablatures, lyrics

Guitar lessons | Add/correct | Request | Top 50 tabs Artists:  A B C D E F G H I J K L M N O P Q R S T U V W X Y Z 0-9

Scuttle Buttin Bass Tabs – Vaughan Stevie Ray

CD, Sheet music, Poster

Do you like Scuttle Buttin? Share with your friends now
Bass TabsTabsTabs v2
Stevie Ray Vaughan - Scuttle Buttin'
Metal Edge BBS (619)423-4970

Tune down 1/2 step


------------------------------------------------
------------------------------------------------
--7-----------------4-----7-----5-----4---------
-----0--4--0--7--0-----0-----0-----0-----0--7--0


------------------------------------------------
------------------------------------------------
--7-----------------4-----7-----4---------------
-----0--4--0--7--0-----0-----5-----0--7--0------


------------------------------------------------
------------------------------------------------
-------4--4--5--6--7--------4-5--4--5--6--7-----
-5--5-----------------5--5-------------------0--


------------------------------------------------
------------------------------------------------
--5-----4-----------7---------------------------
-----0-----0--7--0-----0--4--0--5--0--6--0--7--7


------------------------------------------------
------------------------------------------------
-6--6--7--8--9----------6--x--x--7--7--8--9--7--
----------------7----7--------------------------


------------------------------------------------
----6--x--x--7--8--9----------------------------
-7--------------------5--7--7-----5-----4-------
-------------------------------0-----0-----0--7-


------------------------------------------------
------------------------------------------------
----7--------------------7--7--7--------------4-
-0-----0--4--0--5--6--7-----------4--0--7--0----


------------------------------------------------
------------------------------------------------
----7------5-----4-----------------4--4--5--6--7
-0------------0-----0--7--0--5--5---------------


------------------------------------------------
------------------------------------------------
----------4--x-x--5--4--5--6--7-----5-----4-----
--5----5-------------------------0-----0-----0--


------------------------------------------------
------------------------------------------------
------7---------------------------6--x-x-7--8--9
-7-0-----0--4--0--5--0--6---7--7----------------


------------------------------------------------
-----------------------------------6--------7--8
----------6--x-7--8--9--0---7--7------7--7------
--7----7----------------------------------------


------------------------------------------------
-9----------------------------------------------
----5--7----------7--5--------------------------
------------0--0--------7--7--------------------

guitar solo

------------------------------------------------
------------------------------------------------
-7--------------------7---7-x-------------------
----0--4--0--5--6--7----------4--4-x-5--5--6--7-


------------------------------------------------
------------------------------------------------
-7-----------------------5--7--7----------------
----0--4--0--0--5--6--7-----------4--4-x-7--7--6


------------------------------------------------
------------------------------------------------
----------4--x-x-5--6--7------------4--x-4--5--4
-6--5--5------------------5---5--5--------------


------------------------------------------------
--------------6--------7--8--9---------6--6--7--
--5--6--7--7-----7--7-----------7---7-----------
------------------------------------------------


------------------------------------------------
--8--7--8---9--9-x-----------------9-----------9
--------------------9--------9--9-----9-----9---
-----------------------7--7--------------7------


------------------------------------------------
--------6--6-x-7--8--9--------------------------
--x--7------------------5--7---5--4--------7----
---------------------------------------7------0-

------------------------------------------------
------------------------------------------------
-5-----4-----------7--------------------6--7----
----0-----0--7--0-----0--4--4--5--6--7--------0-


------------------------------------------------
------------------------------------------------
---------------------6--7-----------------------
--4---0--0--5--6--7--------0--4--4--7--7--6--6--


------------------------------------------------
------------------------------------------------
-------4----4--5--6--7--4-----------4----4--5--4
-5--5----------------------5--5--5--------------


------------------------------------------------
-------------6--x-7-7-8--9-----------6--6--7----
-5--6--7--7-----------------5--7--7-----------7-
------------------------------------------------


------------------------------------------------
-7--8--9-------------------------9--------------
----------5-x-6--x-7-7--8--9--9-----5--6--9--9--
------------------------------------------------


------------------------------------------------
--------------6--x-7-7--8--9--9-----------------
--8--8--7--7---------------------7--7--5--5--4--
------------------------------------------------

                                     2x=========
------------------------------------------------
----------------6--x-7--7--8--9------------6----
-4--------7--7-------------------6---7--7-------
----7--7----------------------------------------

------------------------------------------------
-x-7-7-7-7--9--9-----------4------5--4--5--6--7-
---------------------7--7-----------------------
------------------------------------------------


------------------------------------------------
----5-----4-----------7-7-----------------------
-0-----0-----0--7--7-------4----5--4--5--6--7---
------------------------------------------------


------------------------------------------------
------------------------------------------------
----5-----4-----------7-------------------------
-0-----0-----0--7--0-----0--4-----5--4--5--6--7-


------------------------------------------------
------------------------------------------------
----6--x-7-7--8--9--------------6--x-7--7--8--9-
-7------------------5--6--7--7------------------


------------------------------------------------
----------6--------7--8--9----------------------
----7--7-----7--7-----------6--7----7-----------
-7-------------------------------------4--0--7--0


------------------------------------------------
------------------------------------------------
--4-----7-----5-----4-----------7---------------
-----0-----0-----0-----0--7--0-----0--4--0--5--6


------------------------------------------------
------------------------------------------------
----7-----5-----4------------------4--4--5--6--7
-7-----0-----0-----0--7--0---5--5---------------


------------------------------------------------
------------------------------------------------
-----------4--5--4--5--6--7-----5-----4---------
-5---5--5--------------------0-----0-----0--7--0


------------------------------------------------
------------------------------------------------
--7------------------------------6--6--7--8--9--
-----0--4--0--5--0--6--0--7--7------------------


------------------------------------------------
-------------------------------------6--6-------
--------------6--x-7--8--9--9--7--7--------7--7-
--5--6--7--7------------------------------------


------------------------------------------------
-7--8--9--9-------------------------------------
--------------7---------------------------------
------------------------------------------------


Metal Edge BBS (619)423-4970  (San Diego, CA  USA)
Over 10,000 Guitar Tabs, pictures, construction docs, lessons,
interviews, sound files, lyrics, programs.
h = hammeron                          ps = pick scrape
p = pulloff                           % = repeat phrase
b = bend                              + natural harmonic
/\ = Slide
* = Artificial Harmonic
x = ghost note
tr = trill





Comments


Popular Vaughan Stevie Ray tabs & chords
Couldn't Stand The Weather 1 Bass Tabs
Stangs Swang Bass Tabs
Tightrope Chords
Change It 1 Tabs
I'm Cryin' 1 Tabs
Little Wing Tabs
Lookin Out My Window Tabs
Lovestruck Tabs
Lovestruck 1 Tabs
Texas Flood Intro Tabs


Song lyrics



↑ Back to top | Tablatures and chords are parodies/interpretations of the original songs. You may use it for private study, scholarship, research or language learning purposes only
© 2014 AZChords.com Contact us | Privacy policy | DMCA | Add/correct tabs | Request tabs | Top 50 tabs