» » »

Molly Lips Bass tabs (ver.2)

Artists:  A B C D E F G H I J K L M N O P Q R S T U V W X Y Z # 

Molly Lips Bass tabs (ver.2)

Vaselines
Rating:
0/5 (0 votes)

Hard to play? Try these video lessons and learn fast.
                ARTIST-THE VASELINES

SONG-MOLLY'S LIPS

Intro\Verse\Chorus
G|-----------------------------|
D|-----------------------------|
A|--------5-5---------5-5-5----|
E|--5-5-0-----0-5-5-0-------0--|

G|-----------------------------|
D|-----------------------------|
A|--------5-5---------5-5-5----|
E|--5-5-0-----0-5-5-0-------0--|
This is the whole entire song.
            
Hard to play? Try these video lessons and learn fast. | Correct




comments powered by Disqus
↑ Back to top | Tablatures and chords are parodies/interpretations of the original songs. You may use it for private study, scholarship, research or language learning purposes only