» » »

Molly Lips Tabs (ver.2)

Artists:  A B C D E F G H I J K L M N O P Q R S T U V W X Y Z # 

Molly Lips Tabs (ver.2)

Vaselines
Rating:
0/5 (0 votes)

Hard to play? Try these video lessons and learn fast.
                Vaselines - Molly's Lips
Standard Tuning
INTRO\OUTRO
e-------------------------------------------------------------|
b-------------------------------------------------------------|
g-----------5--5--------------5--5--5--------------5--5--5----|
d--5--5--0--5--5--0--5--5--0--5--5--5--0--5--5--0--5--5--5--0-|
a--5--5--0--3--3--0--5--5--0--3--3--3--0--5--5--0--3--3--3--0-|
e--3--3--------------3--3-----------------3--3----------------|


e-------------------------------------------|
b-------------------------------------------|
g-----------5--5--5--------------5--5--5----|
d--5--5--0--5--5--5--0--5--5--0--5--5--5--0-|
a--5--5--0--3--3--3--0--5--5--0--3--3--3--0-|
e--3--3-----------------3--3----------------|


e--------------------------------------------|
b--------------------------------------------|
g-----------5--5--5--------------5--5--5-----|
d--5--5--0--5--5--5--0--5--5--0--5--5--5--0--|
a--5--5--0--3--3--3--0--5--5--0--3--3--3--0--|
e--3--3-----------------3--3-----------------|
            
Hard to play? Try these video lessons and learn fast. | Correct




comments powered by Disqus
↑ Back to top | Tablatures and chords are parodies/interpretations of the original songs. You may use it for private study, scholarship, research or language learning purposes only