» » »

Vanna, We Ate The Horse You Rode In On Tabs (ver.2)

Artists:  A B C D E F G H I J K L M N O P Q R S T U V W X Y Z # 

We Ate The Horse You Rode In On Tabs (ver.2)

Vanna Tabs
 Rating:
4/5 (10 votes)
We Ate The Horse You Rode In On lessons Tabs too difficult? Try these video lessons and learn fast
                We ate the horse you rode in on
Vanna- Curses

drop all strings 1 1/2 steps

B-F#-B-E-G#-C#

B |----------------------------------------------|
F#|----------------------------------------------|
B |----------------------------------------------|
E |-00-00-00-----2---2H4-5-4-2-----------------2-|
G#|-00-00-00-2H4---4-----------4-4-2H4-4-4-2H4---|
C#|-00-00-00-------------------------------------|

VERSE:

B |-------------------------------------|
F#|-------------------------------------|
B |-----------------------------------4-|
E |-----2---2H4-5-4-2-------------------|
G#|-2H4---4-----------4-4-2H4-4-4-2H4---|
C#|-------------------------------------|


B |-------------------------------------|
F#|-------------------------------------|
B |-------------------------------------|
E |-----2---2H4-5-4-2-----------------2-|
G#|-2H4---4-----------4-4-2H4-4-4-2H4---|
C#|-------------------------------------|

B |-------------------------------------|
F#|-------------------------------------|
B |-----------------------------------4-|
E |-----2---2H4-5-4-2-------------------|
G#|-2H4---4-----------4-4-2H4-4-4-2H4---|
C#|-------------------------------------|


RIFF: god damns.

B |--------------------------------------|
F#|--------------------------------------|
B |--------------------------------------|
E |-----2---2H4-5-4-2-----------------00-|
G#|-2H4---4-----------4-4-2H4-4-4-2H4-00-|
C#|-----------------------------------00-|
                                                    x 2
B |-------------------------------------|
F#|-------------------------------------|
B |-----------------------------------4-|
E |-----2---2H4-5-4-2-------------------|
G#|-2H4---4-----------4-4-2H4-4-4-2H4---|
C#|-------------------------------------|      


B |-------------------------------------------------|
F#|-------------------------------------------------|
B |------------6-4-----------------6-4--------------|
E |-00-00-00-------6-4----------00-----6-4----------|
G#|-00-00-00-----------6-7-11-9-00---------6-7-11-9-|
C#|-00-00-00--------------------00------------------|

B |------------------------------------------|
F#|------------------------------------------|
B |-----6-4-----------------6-4--------------|
E |-00------6-4----------00-----6-4----------|
G#|-00----------6-7-11-9-00---------6-7-11-9-|
C#|-00-------------------00------------------|

Pre-Chorus:

B |---------------------|
F#|---------------------|
B |-7777777777777777777-|
E |-7777777777777777777-|
G#|-5555555555555555555-|
C#|---------------------|

Chorus:

B |----------------------------------------|
F#|----------------------------------------|
B |-11/13-13-13-13-11-11-11-11-------------|
E |--x/-x--x--x--x--x--x--x--x-22222-44444-| x2
G#|--9/11-11-11-11--9--9--9--9-22222-44444-|
C#|----------------------------22222-44444-|


B |-------------------|
F#|-------------------|
B |-------------------|
E |-6H7-7--6H7-7--999-|
G#|-6H7-7--6H7-7--999-|
C#|-6H7-7--6H7-7--999-|

B |----------------------------------------|
F#|----------------------------------------|
B |-11/13-13-13-13-11-11-11-11-------------|
E |--x/-x--x--x--x--x--x--x--x-22222-44444-| x2
G#|--9/11-11-11-11--9--9--9--9-22222-44444-|
C#|----------------------------22222-44444-|

B |--------------------------------------------|
F#|--------------------------------------------|
B |--------------------------------------------|
E |-6H7-7--6H7-7--999-11-11-11-11-11\99-77-777\|
G#|-6H7-7--6H7-7--999-11-11-11-11-11\99-77-777\|
C#|-6H7-7--6H7-7--999-11-11-11-11-11\99-77-777\|


B |-----------------------------------|
F#|-----------------------------------|
B |-----------------------------------|
E |-44-4/11-11-11-11-11-11\99-9\777-7\| x2
G#|-44-4/11-11-11-11-11-11\99-9\777-7\|
C#|-44-4/11-11-11-11-11-11\99-9\777-7\|

B |-------------------|
F#|-------------------|
B |-------------------|
E |-44-4/7-77/99-9/11~|
G#|-44-4/7-77/99-9/11~|
C#|-44-4/7-77/99-9/11~|


Bridge:
B |----|
F#|----|
B |----|
E |-11~|
G#|-11~|
C#|-11~|


Verse: 2

B |------------------------------------------|
F#|------------------------------------------|
B |-------------7-------------------------3~-| 
E |-0-3-5-3-5-3-7-0~-7-5-3-5-0~-3-5-3-5-3----|
G#|-0-3-5-3-5-3-5-0~-7-5-3-5-0~-3-5-3-5-3----|
C#|-0-3-5-3-5-3---0~-7-5-3-5-0~-3-5-3-5-3----|
						   x2
B |------------------------------------------|
F#|------------------------------------------|
B |-------------7----------------------------| 
E |-0-3-5-3-5-3-7-0~-7-5-3-5-0~-3-5-3-5-3-3~-|
G#|-0-3-5-3-5-3-5-0~-7-5-3-5-0~-3-5-3-5-3-3~-|
C#|-0-3-5-3-5-3---0~-7-5-3-5-0~-3-5-3-5-3-3~-|

B |---------------------------------------|
F#|---------------------------------------|
B |---------------------------------------|
E |00-----2---2H4-5-4-2-----------------2-|
G#|00-2H4---4-----------4-4-2H4-4-4-2H4---|
C#|00-------------------------------------|

B |---------------------------------------|
F#|---------------------------------------|
B |-------------------------------------4-|
E |00-----2---2H4-5-4-2-------------------|
G#|00-2H4---4-----------4-4-2H4-4-4-2H4---|
C#|00-------------------------------------|

Pre-chorus:
B |------------------------------------------|
F#|------------------------------------------|
B |-----6-4-----------------6-4--------------|
E |-00------6-4----------00-----6-4----------|
G#|-00----------6-7-11-9-00---------6-7-11-9-|
C#|-00-------------------00------------------|

B |---------------------|
F#|---------------------|
B |-7777777777777777777-|
E |-7777777777777777777-|
G#|-5555555555555555555-|
C#|---------------------|

Chorus:

B |----------------------------------------|
F#|----------------------------------------|
B |-11/13-13-13-13-11-11-11-11-------------|
E |--x/-x--x--x--x--x--x--x--x-22222-44444-| x2
G#|--9/11-11-11-11--9--9--9--9-22222-44444-|
C#|----------------------------22222-44444-|


B |-------------------|
F#|-------------------|
B |-------------------|
E |-6H7-7--6H7-7--999-|
G#|-6H7-7--6H7-7--999-|
C#|-6H7-7--6H7-7--999-|

B |----------------------------------------|
F#|----------------------------------------|
B |-11/13-13-13-13-11-11-11-11-------------|
E |--x/-x--x--x--x--x--x--x--x-22222-44444-| x2
G#|--9/11-11-11-11--9--9--9--9-22222-44444-|
C#|----------------------------22222-44444-|

B |------------------|
F#|------------------|
B |------------------|
E |-6H7-7--6H7-7--9~-|
G#|-6H7-7--6H7-7--9~-|
C#|-6H7-7--6H7-7--9~-|


Bridge:

B |---------------------------|
F#|---------------------------|
B |---------------------------|
E |---------------------------|
G#|---------------------------|       \
C#|-00-11-0-7-6-6-6-6-4-4-2-2-|        \
					x2
B |-------------|                      /
F#|-------------|                     /
B |-------------|
E |-------------|
G#|-------------|
C#|-00-11-0-7-6-|

B |------------------------------------|
F#|------------------------------------|
B |---------14-13-13-13-13-12-12-11-11-|
E |-00-11-0--x--x--x--x--x--x--x--x--x-| 
G#|-00-11-0-12-11-11-11-11-10-10--8--8-|  \
C#|-00-11-0----------------------------|   \
					    x2
B |---------------|			   /
F#|---------------|			  /
B |---------14-13~|
E |-00-11-0--x--x~|
G#|-00-11-0-12-11~|
C#|-00-11-0-------|

B |------------------------------------|
F#|------------------------------------|
B |---------14-13-13-13-13-12-12-11-11-|
E |-00-11-0--x--x--x--x--x--x--x--x--x-| 
G#|-00-11-0-12-11-11-11-11-10-10--8--8-|  
C#|-00-11-0----------------------------|

B |--------------|
F#|-11-11--11-11-|
B |-14-14--14-14-|
E |--------------|
G#|--------------|
C#|--------------|



personaly one of my favorite songs off the whole
cd sadly now i realize thta one of my brings might be out of tuned
so hopefully its not too off kilter. Enjoi.
            
Submit corrections

comments powered by Disqus
↑ Back to top | Vanna Tabs for We Ate The Horse You Rode In On. Lyrics for acoustic guitar and electric guitar. Tablatures and chords are parodies/interpretations of the original songs. You may use it for private study, scholarship, research or language learning purposes only