» » »

Vanna, We Ate The Horse You Rode In On Tabs (ver.1)

Artists:  A B C D E F G H I J K L M N O P Q R S T U V W X Y Z # 

We Ate The Horse You Rode In On Tabs (ver.1)

Vanna Tabs
Rating:
3/5 (2 votes)
We Ate The Horse You Rode In On lessons Tabs too difficult? Try these video lessons and learn fast
                First tab I ever wrote on here.. I wanted to write this on Guitar pro, 
but atleast everyone can read this if I wrote it out. I dont think it sounds
100% right [ie. the chorus and harmonizations], but it's good enough for me [:

Tuning B F# B E G# C#


Intro
Guitar 1
C#|---------------------------------------|
G#|---------------------------------------|
E |---------------------------------------|
B |-0-0-----------------------------------|
F#|-0-0-----------------------------------|
B |-0-0-----------------------------------| x2

--

Verse
Guitar 1
C#|---------------------------------------|
G#|---------------------------------------|
E |---------------------------------------|
B |-0-0-----3---3h5-6-5-3-----------------|
F#|-0-0-3h5---5-----------5-3h5-55-3h5-5--|
B |-0-0-----------------------------------|

C#|---------------------------------------|
G#|---------------------------------------|
E |---------------------------------5-----|
B |-0-0-----3---3h5-6-5-3-------3h5-------|
F#|-0-0-3h5---5-----------5-3h5-----------|
B |-0-0-----------------------------------| x4

Guitar 2 [starts the third time around]
C#|---------------------------------------|
G#|---------6---6h8-9-8-6-----------------|
E |-----5h7---7-----------7-5h7-77-5h7-7--|
B |-0-0-----------------------------------|
F#|-0-0-----------------------------------|
B |-0-0-----------------------------------|

C#|---------------------------------8-----|
G#|---------6---6h8-9-8-6-------6h8-------|
E |-----5h7---7-----------7-5h7-----------|
B |-0-0-----------------------------------|
F#|-0-0-----------------------------------|
B |-0-0-----------------------------------| x2

--

Guitar 1
C#|---------------------------------------|
G#|---------------------------------------|
E |---------------------------------------|
B |-0-0-----------------------------------|
F#|-0-0-----------------------------------|
B |-0-0-----------------------------------| x2

Guitar 1
C#|---------------------------------------|
G#|-----6---------------------------------|
E |--------7--5---------------------------|
B |-0-0----------8--7--5--7~--5~----------|
F#|-0-0-----------------------------------|
B |-0-0-----------------------------------| 

C#|---------------------------------------|
G#|-----6---------------------------------|
E |--------7--5---------------------------|
B |-0-0----------8--7--5--7~--------------|
F#|-0-0-----------------------5~----------|
B |-0-0-----------------------------------| x2

Guitar 2
C#|---------------------------------------|
G#|---------------------------------------|
E |-----7---------------------------------|
B |-0-0----8--7---------------------------|
F#|-0-0----------10-8--7--8~--7~----------|
B |-0-0-----------------------------------| 

C#|---------------------------------------|
G#|---------------------------------------|
E |-----7---------------------------------|
B |-0-0----8--7---------------------------|
F#|-0-0----------10-8--7--8~--5~----------|
B |-0-0-----------------------------------| x2

Guitars 1
C#|---------------------------------------|
G#|---------------------------------------|
E |-10101010101010101010101010------------|
B |-10101010101010101010101010------------|
F#|-8-8-8-8-8-8-8-8-8-8-8-8-8-------------|
B |---------------------------------------| 

Guitar 2
C#|---------------------------------------|
G#|---------------------------------------|
E |-17171717171717171717171717------------|
B |-x-x-x-x-x-x-x-x-x-x-x-x-x-------------|
F#|-15151515151515151515151515------------|
B |---------------------------------------| 

--

Chorus
Guitar 1
C#|--------------------------------------------------|
G#|--------------------------------------------------|
E |-12-14141414-12-14141414-12-14141414-12-10101010--|
B |-x--x-x-x-x--x--x-x-x-x--x--x-x-x-x--x--x-x-x-x---|
F#|-10-12121212-10-12121212-10-12121212-10-8-8-8-8---|
B |--------------------------------------------------| 

C#|--------------------------------------------------|
G#|--------------------------------------------------|
E |-12-14141414-12-14141414-9--10101010-12-10101010--|
B |-x--x-x-x-x--x--x-x-x-x--x--x-x-x-x--x--x-x-x-x---|
F#|-10-12121212-10-12121212-7--8-8-8-8--10-8-8-8-8---|
B |--------------------------------------------------| x2

[Play this, for Guitar 1, before repeating]
C#|--------------------------------------------------|
G#|--------------------------------------------------|
E |-1717171717171717191919---------------------------|
B |-x-x-x-x-x-x-x-x-x-x-x----------------------------|
F#|-1515151515151515171717---------------------------|
B |--------------------------------------------------|

Guitar 2
C#|------------------|-------------------|
G#|------------------|-------------------|
E |----------7-7-7-7-|-------------------|
B |-0-0-0-0--7-7-7-7-|-3-3-3-3--5-5-5-5--|
F#|-0-0-0-0--5-5-5-5-|-3-3-3-3--5-5-5-5--|
B |-0-0-0-0----------|-3-3-3-3--5-5-5-5--| x2

[Play this, for Guitar 2, before repeating]
C#|--------------------------------------------------|
G#|--------------------------------------------------|
E |--------------------------------------------------|
B |-8-7-8--8-8-8--8--8h10----------------------------|
F#|-8-7-8--8-8-8--8--8h10----------------------------|
B |-8-7-8--8-8-8--8--8h10----------------------------|

--

Sweet part

Guitar 1
C#|--------------------------------------------------|
G#|--------------------------------------------------|
E |-1717171717171717191919-1414141414141414151515----|
B |-x-x-x-x-x-x-x-x-x-x-x--x-x-x-x-x-x-x-x-x-x-x-----|
F#|-1515151515151515171717-1212121212121212131313----|
B |--------------------------------------------------| x4

Guitar 2
C#|--------------------------------------------------|
G#|--------------------------------------------------|
E |--------------------------------------------------|
B |-8-7-8--8-8-8--8--8h10--121212-121212-12-12h10----|
F#|-8-7-8--8-8-8--8--8h10--121212-121212-12-12h10----|
B |-8-7-8--8-8-8--8--8h10--121212-121212-12-12h10----| x4

--

Verse 2
Guitars 1&2 [If youre into that kind of thing]
C#|------------------------------------------------|
G#|------------------------------------------------|
E |------------------------------------------------|
B |-0--3-5-3-5--12--3-5-3-5-0--0--3-5-3-5-3--------|
F#|-0--3-5-3-5--12--3-5-3-5-0--0--3-5-3-5-3--------|
B |-0--3-5-3-5--12--3-5-3-5-0--0--3-5-3-5-3-(3)-12\| 

C#|------------------------------------------------|
G#|------------------------------------------------|
E |------------------------------------------------|
B |-0--3-5-3-5--12--3-5-3-5-0--0--3-5-3-5-3~-------|
F#|-0--3-5-3-5--12--3-5-3-5-0--0--3-5-3-5-3~-------|
B |-0--3-5-3-5--12--3-5-3-5-0--0--3-5-3-5-3~-------| x2

--

Guitar 1
C#|---------------------------------------|---------------------------------------|
G#|---------------------------------------|---------------------------------------|
E-|---------------------------------------|---------------------------------5-----|
B-|-0-0-----3---3h5-6-5-3-----------------|-0-0-----3---3h5-6-5-3-------3h5-------|
F#|-0-0-3h5---5-----------5-3h5-55-3h5-5--|-0-0-3h5---5-----------5-3h5-----------|
B-|-0-0-----------------------------------|-0-0-----------------------------------|

Guitar 2 
C#|---------------------------------------|---------------------------------8-----|
G#|---------------------------------------|---------6---6h8-9-8-6-------6h8-------|
E-|---------------------------------------|-----5h7---7-----------7-5h7-----------|
B-|---------------------------------------|-0-0-----------------------------------|
F#|---------------------------------------|-0-0-----------------------------------|
B-|---------------------------------------|-0-0-----------------------------------|

Guitar 1
C#|---------------------------------------|---------------------------------------|
G#|-----6---------------------------------|-----6---------------------------------|
E-|--------7--5---------------------------|--------7--5---------------------------|
B-|-0-0----------8--7--5--7~--5~----------|-0-0----------8--7--5--7~--------------|
F#|-0-0-----------------------------------|-0-0-----------------------5~----------|
B-|-0-0-----------------------------------|-0-0-----------------------------------|  

Guitar 2
C#|---------------------------------------|---------------------------------------|
G#|---------------------------------------|---------------------------------------|
E-|-----7---------------------------------|-----7---------------------------------|
B-|-0-0----8--7---------------------------|-0-0----8--7---------------------------|
F#|-0-0----------10-8--7--8~--7~----------|-0-0----------10-8--7--8~--5~----------|
B-|-0-0-----------------------------------|-0-0-----------------------------------| 


Guitars 1
C#|---------------------------------------|
G#|---------------------------------------|
E |-10101010101010101010101010------------|
B |-10101010101010101010101010------------|
F#|-8-8-8-8-8-8-8-8-8-8-8-8-8-------------|
B |---------------------------------------| 

Guitar 2
C#|---------------------------------------|
G#|---------------------------------------|
E |-17171717171717171717171717------------|
B |-x-x-x-x-x-x-x-x-x-x-x-x-x-------------|
F#|-15151515151515151515151515------------|
B |---------------------------------------| 

--

Chorus

--

Breakdown!

C#|------------------------------|------------------------------|
G#|------------------------------|------------------------------|
E |------------------------------|------------------------------|
B |------------------------------|------------------------------|
F#|------------------------------|------------------------------|
B |-0-0--11-0-6-7--7-7-7-4-4-2-2-|-0-0--11-0-6-7~---------------| x2

C#|------------------------------|------------------------------|
G#|------------------------------|------------------------------|
E |------------------------------|------------------------------|
B |-0-0--11-0-6-7--7-7-7-4-4-2-2-|-0-0--11-0-6-7~---------------|
F#|-0-0--11-0-6-7--7-7-7-4-4-2-2-|-0-0--11-0-6-7~---------------|
B |-0-0--11-0-6-7--7-7-7-4-4-2-2-|-0-0--11-0-6-7~---------------| x2

C#|------------------------------|------------------------------|
G#|------------------------------|-10-10--10-10-----------------|
E |------------------------------|-13-13--13-13b----------------|
B |-0-0--11-0-6-7--7-7-7-4-4-2-2-|------------------------------|
F#|-0-0--11-0-6-7--7-7-7-4-4-2-2-|------------------------------|
B |-0-0--11-0-6-7--7-7-7-4-4-2-2-|------------------------------| 
            
Submit corrections

comments powered by Disqus
↑ Back to top | Vanna Tabs for We Ate The Horse You Rode In On. Lyrics for acoustic guitar and electric guitar. Tablatures and chords are parodies/interpretations of the original songs. You may use it for private study, scholarship, research or language learning purposes only