>
 >
On & On 1

On & On 1 Guitar Tabs

Vanilla Sky - On & On 1 chords, tabs, tablatures, lyrics

Guitar lessons | Add/correct | Request | Top 50 tabs Artists:  A B C D E F G H I J K L M N O P Q R S T U V W X Y Z 0-9

On & On 1 Guitar Tabs – Vanilla Sky

CD, Sheet music, Poster

Do you like On & On 1? Share with your friends now
TabsTabs v2
INTRO

e|--------------------------------------|
B|--------------------------------------|
G|--6---6----6---6---6--6----6--6-------|x4
D|--6---6----6---6---6--6----6--6-------|
A|----4---4----4---4--------------------|
E|---------------------6--6----4--4-----|

VERSE 1

GUITAR 1

e|--------------------------------------|
B|----------------------------10--------|
G|--6---6--8~--6---6~----6-8~----8--6~--|x5
D|----6----------6-----6----------------|
A|--------------------------------------|
E|--------------------------------------|

PRE-CHORUS

GUITAR 2

e|--------------------------------------|
B|--------------------------------------|
G|--6-6-6-5-5-5-8-8-8-10-6-6-6-6-5-5----|
D|--x-x-x-x-x-x-x-x-x-x--x-x-x-x-x-x----|
A|--4-4-4-3-3-3-6-6-6-8--4-4-4-4-3-3----|
E|--------------------------------------|

GUITAR 3

e|--------------------------------------|
B|--------------------------------------|
G|--------------------------------------|
D|--2-2-2-2-2-2-2-2-2-2-2-2-2-2-2-2-----|
A|--4-4-4-4-4-4-4-4-4-4-4-4-4-4-4-4-----|
E|--4-4-4-4-4-4-4-4-4-4-4-4-4-4-4-4-----|
        pm.........

CHORUS

e|----------------------|
B|----------------------|
G|----------------------|x2
D|--11------8-----4-----|
A|--9--x16--6-x8--2-x8--|
E|--9-------6-----2-----|

VERSE 2

GUITAR 1

e|--------------------------------------|
B|--------------------------------------|
G|--6---6----6---6---6--6----6--6-------|x5
D|--6---6----6---6---6--6----6--6-------|
A|----4---4----4---4--------------------|
E|---------------------6--6----4--4-----|

GUITAR 2

e|-------------------------------------------|
B|-------------------------------------------|
G|-------------------------------------------|x3
D|-------------------------------------------|
A|---4-4--2-4-2------------------------------|
E|-6------------4-2-2--2-6-6--6-4-4--4-6-4-6-|

e|-----------------------------------------|
B|-----------------------------------------|
G|-----------------------------------------|
D|-----------------------------------------|
A|---4-4--2-4-2----------------------------|
E|-6------------4-2-2--2-6-6--6-4-4--4-6-4-|

PRE-CHORUS

GUITAR 2

e|--------------------------------------|
B|--------------------------------------|
G|--6-6-6-5-5-5-8-8-8-10-6-6-6-6-5-5----|
D|--x-x-x-x-x-x-x-x-x-x--x-x-x-x-x-x----|
A|--4-4-4-3-3-3-6-6-6-8--4-4-4-4-3-3----|
E|--------------------------------------|

GUITAR 3

e|--------------------------------------|
B|--------------------------------------|
G|--------------------------------------|
D|--2-2-2-2-2-2-2-2-2-2-2-2-2-2-2-2-----|
A|--4-4-4-4-4-4-4-4-4-4-4-4-4-4-4-4-----|
E|--4-4-4-4-4-4-4-4-4-4-4-4-4-4-4-4-----|
        pm.........

CHORUS

e|----------------------|
B|----------------------|
G|----------------------|x2
D|--11------8-----4-----|
A|--9--x16--6-x8--2-x8--|
E|--9-------6-----2-----|

BRIDGE

e|--------------------------------------------------------|
B|--------------------------------------------------------|
G|--------------------------------------------------------|
D|-13-----4-----11-----8-8---8-8--8-----4-----9------11~--|
A|-11-x8--2-x8--9--x8--6-6---6-6--6-x8--2-x8--7-x15--9~---|
E|-11-----2-----9------6-6---6-6--6-----2-----7------9~---|

GUITAR 1

e|--------------------------------------|
B|--------------------------------------|
G|--6---6----6---6---6--6----6--6-------|
D|--6---6----6---6---6--6----6--6-------|
A|----4---4----4---4---4--4----4--4-----|
E|--------------------------------------|

e|--------------------------------------|
B|--------------------------------------|
G|--6---6----6---6---6--6----6--6-------|
D|--6---6----6---6---6--6----6--6-------|
A|----4---4----4---4---4--4----4--------|
E|--------------------------------------|

CHORUS

e|----------------------|
B|----------------------|
G|----------------------|x4
D|--11------8-----4-----|
A|--9--x16--6-x8--2-x8--|
E|--9-------6-----2-----|

OUTRO

GUITAR 2

e|------|
B|------|
G|------|
D|--11~-|
A|--9~--|
E|--9~--|

GUITAR 1

e|--------------------------------------|
B|----------------------------10--------|
G|--6---6--8~--6---6~----6-8~----8--6~--|x5
D|----6----------6-----6----------------|
A|--------------------------------------|
E|--------------------------------------|

GUITAR 3

e|--------------------------------|
B|--------------------------4-6~--|
G|----5---5-6~------6---6---------|
D|--6---6--------6~---6---6-------|
A|--------------------------------|
E|--------------------------------|

e|---------------4-----4---------4-----4-------|
B|----7-6--------------------------------------|
G|--------6--5-6---5-6---5-6-5-6---5-6---5-6~--|
D|--6------------------------------------------|
A|---------------------------------------------|
E|---------------------------------------------|

Hope you like it.





Comments


Popular Vanilla Sky tabs & chords
Umbrella 1 Chords
Vivere Diversi Chords
A Thousand Miles Tabs
Devastante Tabs
Goodbye 1 Tabs
Just Dance Tabs
On & On Tabs
Umbrella 2 Tabs
Umbrella 4 Tabs
Vivere Diversi Ukulele


Song lyrics



↑ Back to top | Tablatures and chords are parodies/interpretations of the original songs. You may use it for private study, scholarship, research or language learning purposes only
© 2014 AZChords.com Contact us | Privacy policy | DMCA | Add/correct tabs | Request tabs | Top 50 tabs