>
 >
You Really Got Me 3

You Really Got Me 3 Bass Tabs

Van Halen - You Really Got Me 3 chords, tabs, tablatures, lyrics

Guitar lessons | Add/correct | Request | Top 50 tabs Artists:  A B C D E F G H I J K L M N O P Q R S T U V W X Y Z 0-9

You Really Got Me 3 Bass Tabs – Van Halen

CD, Sheet music, Poster

Do you like You Really Got Me 3? Share with your friends now
Bass TabsBass Tabs v2Bass Tabs v3ChordsDrum TabsTabsTabs v2Tabs v3Tabs v4Ukulele
--------------------------------------------------------------------------------------------------
YOU REALLY GOT ME - Van Halen
--------------------------------------------------------------------------------------------------


Tuning: Half-Step Down (from low to high: Eb,Ab,Db,Gb)

Intro

            H Q E  E     E E E E Q E E 4x
Gb|-------|-r-r------||----------r-r----||
Db|-3-bar-|-e-e------||*---------e-e---*||
Ab|-rest--|-s-s------||*---------s-s---*||
Eb|-------|-t-t-10\3-||--5-5-3-5-t-t-3--||

Verse 1

      E E E E Q E E 3x  E E E E E E E E     E E E E Q E E 3x  E Q Q Q E
Gb||----------r-r----||-----5-----4-----||----------r-r----||-----------|
Db||*---------e-e---*||-----------------||*---------e-e---*||-----------|
Ab||*---------s-s---*||---3---3-2-------||*---------s-s---*||-----------|
Eb||--5-5-3-5-t-t-3--||-5-----------0-3-||--5-5-3-5-t-t-3--||-5-0-3-4-5-|

      E E E E Q E E 3x  E E E Q E E E     E E E Q. E E     E E E Q. E E
Gb||----------r-r----||---------------||-----------r----||--------------|
Db||*---------e-e---*||---------------||*----------e---*||--------------|
Ab||*---------s-s---*||-----------5-6-||*-7-7-5-7\-s-5-*||-7-7-5-7\---5-|
Eb||--7-7-5-7-t-t-5--||-7-7-5-7-5-----||-----------t----||----------0---|

      E E E Q. E E     E E E Q. E E   W + H   H
Gb||----------------||--------------|---|---------|
Db||*--------------*||--------------|---|---------|
Ab||*-7-7-5-7\---5-*||-7-7-5-7\-----|-5-|(5)-/10\-|
Eb||-----------0----||----------0-0-|---|---------|

Verse 2

      E E E E Q E E 3x  E Q H E     E E E E Q E E 3x  E Q Q Q E
Gb||----------r-r----||-----5---||----------r-r----||-----------|
Db||*---------e-e---*||---------||*---------e-e---*||-----------|
Ab||*---------s-s---*||---3-----||*---------s-s---*||-----------|
Eb||--5-5-3-5-t-t-3--||-5-----3-||--5-5-3-5-t-t-3--||-5-0-3-4-5-|

      E E E E Q E E 3x  E E E Q E E E     E E E Q. E E     E E E Q. E E
Gb||----------r-r----||---------------||-----------r----||--------------|
Db||*---------e-e---*||---------------||*----------e---*||--------------|
Ab||*---------s-s---*||-----------5-6-||*-7-7-5-7\-s-5-*||-7-7-5-7\---5-|
Eb||--7-7-5-7-t-t-5--||-7-7-5-7-5-----||-----------t----||----------0---|

      E E E Q. E E     E E E Q. E E   W + H   Q   E E
Gb||----------------||--------------|---|-------------|
Db||*--------------*||--------------|-7-|(7)----------|
Ab||*-7-7-5-7\---5-*||-7-7-5-7\-----|-5-|(5)-/10\-----|
Eb||-----------0----||----------0-0-|---|---------0-3-|

Guitar Solo

      E E E Q. E E     E E E Q E E E + E  Q S S Q E E     E E E Q. E E
Gb||-----------r----||---------------|----5-----------||-----------r----||
Db||*----------e---*||---------------|----------------||*----------e---*||
Ab||*----------s---*||-------------3-|(3)---2h3-5-----||*----------s---*||
Eb||--5-5-3-5\-t-3--||-5-5-3-5-3-5---|------------0-3-||--5-5-3-5\-t-3--||

    E E E Q E E E   E E E E E E E E   E E E E Q E E
Gb|---------------|-----------------|---------r-r---|
Db|---------------|---3-------5-----|---------e-e---|
Ab|---------------|-----------------|---------s-s---|
Eb|-5-5-3-5-3-5-0-|-1---1-1-3---3-3-|-5-5-3-5-t-t-3-|

    E E E E S S S S E S S   E E E E Q E E   E E E E E E E E   W    W   W   W
Gb|-----------------------|---------r-r---|-------4---------|----|-r-|-r-|-r-|
Db|-----------------------|---------e-e---|-----------------|----|-e-|-e-|-e-|
Ab|-----------------------|---------s-s---|---3-2---2-------|----|-s-|-s-|-s-|
Eb|-5-5-3-5-x-x-x-x-x-5-3-|-5-5-3-5-t-t-3-|-5---------0-3-4-|-5\-|-t-|-t-|-t-|

Verse 3

            H  H       E E E E Q E E 3x  E E E Q E E E     E E E Q. E E     E E E Q. E E
Gb|-------|-r------||----------r-r----||---------------||-----------r----||--------------|
Db|-7-bar-|-e------||*---------e-e---*||---------------||*----------e---*||--------------|
Ab|-rest--|-s------||*---------s-s---*||-----------5-6-||*-7-7-5-7\-s-5-*||-7-7-5-7\---5-|
Eb|-------|-t-/18\-||--7-7-5-7-t-t-5--||-7-7-5-7-5-----||-----------t----||----------0---|

                                                   Free Time

      E E E Q. E E     E E E Q. E E   E E E E E E Q +  H. Q
Gb||----------------||--------------|---r---r---r-9-|-(9)-----||
Db||*--------------*||--------------|---e---e---e-9-|-(9)-----||
Ab||*-7-7-5-7\---5-*||-7-7-5-7\-----|---s---s---s-7-|-(7)-----||
Eb||-----------0----||----------0-0-|-0-t-0-t-0-t-0-|-(0)-12\-||

Enjoy!!!

| /  slide up
| \  slide down
| h  hammer-on
| p  pull-off
| ~  vibrato
| +  harmonic
| x  Mute note
==================================================================================================





Comments


Popular Van Halen tabs & chords
Bullethead Bass Tabs
Cant Get This Stuff No More Bass Tabs
31 Tabs
Hear About It Later 1 Tabs
Jump 6 Tabs
Little Guitars Tabs
Panama 2 Tabs
Romeo Delight Tabs
So This Is Love Solo Lead In Tabs
Summer Nights Tabs


Song lyrics



↑ Back to top | Tablatures and chords are parodies/interpretations of the original songs. You may use it for private study, scholarship, research or language learning purposes only
© 2014 AZChords.com Contact us | Privacy policy | DMCA | Add/correct tabs | Request tabs | Top 50 tabs