>
 >
Tattoo

Tattoo Guitar Tabs

Van Halen - Tattoo chords, tabs, tablatures, lyrics

Guitar lessons | Add/correct | Request | Top 50 tabs Artists:  A B C D E F G H I J K L M N O P Q R S T U V W X Y Z 0-9

Tattoo Guitar Tabs – Van Halen

CD, Sheet music, Poster

Do you like Tattoo? Share with your friends now
Bass TabsChordsTabsUkulele
-----------------------------------------------------------------------------
                         A Different Kind Of Truth
                             February 7th, 2012
-----------------------------------------------------------------------------

Tuning:Standard E

  Intro...
e|--------------------------------------------------------------------------|
B|--------------------------------------------------------------------------|
G|--------------------------------------------7\5/7-------------------------|
D|-7b-7bbb-9b-10b-9b-10b-9b-9b-9*-7h9p7p6h7p6-------7b-7bbb-9b-10b-12b-16b--|
A|-5--5----7---8--7---8--7--7-----------------------5--5----7---8--10--14---|
E|--------------------------------------------------------------------------|
                          Verse...        I got hula girls on the back.....
e|--------------------------------------------------------------------------|
B|-----------------------------------------0-0-0---0-0-0-0-0---0-0-0-0---0--|
G|-----------------------------------------2-0-2-0-2-2-2-2-0h2-2-2-0-2-0-2--|
D|-17b-16b-14*-2*-DIVE---------------------2-0-2-2-2-2-2-2-0h2-2-2-0-2-2-2--|
A|-15--14----------------------------------------3---------------------3----|
E|--------------------------------------------------------------------------|
                                                             Pick Slide....
e|--------------------------------------------------------------------------|
B|-0-0-0-0---0-0-0-1-3---3-3-3-3-----3-0-0-0---0-0-0-0-0---0----------------|
G|-2-2-2-0h2-2-2-0-3-5-3-5-5-5-5-3-3-5-2-0-2-0-2-2-2-2-0h2-2----------------|
D|-2-2-2-0h2-2-2-0-3-5-5-5-5-5-5-5-3-5-2-0-2-2-2-2-2-2-0h2-2----------------|
A|---------------------6---------6-----------3------------------------------|
E|--------------------------------------------------------------------------|
   Swap meat sally......
e|--------------------------------------------------------------------------|
B|--8--8--8--8--8----10-10-10-10-10---3-----2--------0----------------------|
G|--12-12-12-10-10---14-14-14-12-12-----5-----5---5----2--------------------|
D|----------------------------------------5-----5--------2--5-4h5p4p2p0-----|
A|--------------------------------------------------------------------------|
E|--------------------------------------------------------------------------|
                                      Tattoo.....Tattooo
e|--------------------------------------------------------------------------|
B|--8--8--8--8--8----10-10-10-10-10-------0-0-0-0-0---0-0-0-0---0-0-0-0-0---|
G|--12-12-12-10-10---14-14-14-14-12-----0-2-2-2-2-0h2-2-2-0-2-0-2-2-2-2-0h2-|
D|--------------------------------------2-2-2-2-2-0h2-2-2-0-2-2-2-2-2-2-0h2-|
A|--------------------------------------3---------------------3-------------|
E|--------------------------------------------------------------------------|
     Repeat Verse, Bridge, and Chorus  Bridge to Solo....
e|----------------------------------------------------------------1-3-------|
B|--0----------------------------------1--------1-3h5p3--------3--3-5---5---|
G|--2-------------------------------------------------------------3-5-4-----|
D|--2-----------------------------------------------------------------------|
A|------------------------------------------3---------------3---------------|
E|----------------------------------------3---------------3-----------------|

e|--5-5---------------------------------------------------------------------|
B|--7-7---1---------1-3h5p3-------------------------------------------------|
G|--7-7---------------------------------------------------------------------|
D|--------------------------------------------------------------------------|
A|-------------3---------------3-2*-DIVE------------------------------------|
E|-----------3---------------3----------------------------------------------|

I noticed Eddie plays the verse higher up on the neck, this tab is how I like to play 
it, its the same thing just lower on the neck.


************************************

| /   slide up
| \   slide down
| h   hammer-on
| p   pull-off
| ~   vibrato
| +   harmonic
| *   pinch harmonic
| x   Mute note
| b   Bend
| pb  Pre-bend
| br  Bend release
| pbr Pre-bend release
| brb Bend release bend

************************************





Comments


Popular Van Halen tabs & chords
Big Bad Bill Is Sweet William Now Bass Tabs
Bullethead Bass Tabs
Dreams Bass Tabs
Heaven And Hell 2 Bass Tabs
Aint Talkin Bout Love Intro Tabs
Feel Your Love Tabs
Ill Wait 1 Tabs
Judgement Day Tabs
When Its Love Tabs
Dreams Ukulele


Song lyrics



↑ Back to top | Tablatures and chords are parodies/interpretations of the original songs. You may use it for private study, scholarship, research or language learning purposes only
© 2014 AZChords.com Contact us | Privacy policy | DMCA | Add/correct tabs | Request tabs | Top 50 tabs