>
 >
Light Up The Sky 1

Light Up The Sky 1 Guitar Tabs

Van Halen - Light Up The Sky 1 chords, tabs, tablatures, lyrics

Guitar lessons | Add/correct | Request | Top 50 tabs Artists:  A B C D E F G H I J K L M N O P Q R S T U V W X Y Z 0-9

Light Up The Sky 1 Guitar Tabs – Van Halen

CD, Sheet music, Poster

Do you like Light Up The Sky 1? Share with your friends now
TabsTabs v2
Band- Van Halen
Song- Light Up The Sky

Gtr I (Eb Ab Db Gb Bb Eb) - 'Eddie Van Halen - Rhythm w/dist'
Gtr II (Eb Ab Db Gb Bb Eb) - 'Eddie Van Halen - Lead w/dist'

Intro
  Fast Rock Q=197
  N.C.
 4/4
  Gtr I
  PM--------------------------|
  E E E E E E E E   E E E E E  E E  E    E  E  E  E  E  E  E  E
|-----------------|-------------------|--------------------------|
|-----------------|-------------------|--------------------------|
|---4---5---6---7-|---8---9---10---11-|----12----13----14----15--|
|-2---3---4---5---|-6---7---8----9----|-10----11----12----13-----|
|-----------------|-------------------|--------------------------|
|-----------------|-------------------|--------------------------|


               Gm7
             PM         PM--|     PM----------|     PM
   Q  Q  E E E E   +H        E  E E E   E E E E E E E E
|----------------|--------------------|-----------------|
|----------------|--------------------|-----------------|
|-16-----3s5---3-|-(3)------(3)-0-----|---------3s5---3-|
|-14-----3s5---3-|-(3)------(3)-------|---------3s5---3-|
|----------------|--------------------|-----------------|
|------------3---|------3-3--3----3-3-|-3-3-3-3-----3---|
                    Q   E E  H


    A5/G                             Gm7
             PM--|    PM-| PM|     PM         PM--|     PM|
  E Q.   +H          +Q    Q   E E E E   +H        E  E E E
|------------------|-------------------|--------------------|
|------------------|-------------------|--------------------|
|---2----(2)-------|-(2)-------3s5---3-|-(3)------(3)-0-----|
|---2----(2)-------|-(2)-------3s5---3-|-(3)------(3)-0-----|
|------------------|-------------------|--------------------|
|-x----------3-3-3-|--3--3-3-3-----3---|------3-3--3----3-3-|
  H       E  E E E    E  E E E H          Q   E E  H


                      A5/G                             Am7
  PM----|     PM               PM--|    PM-| PM|     PM         PM--|
  E E E E E E E E   E Q.   +H          +Q    Q   E E E E   +H        E  E E E
|-----------------|------------------|-------------------|--------------------|
|-----------------|------------------|-------------------|--------------------|
|---------3s5---3-|---2----(2)-------|-(2)-------5s7---5-|-(5)------(5)-2-----|
|---------3s5---3-|---2----(2)-------|-(2)-------5s7---5-|-(5)------(5)-2-----|
|-----------------|------------------|---------------0---|------0-0--0----0-0-|
|-3-3-3-3-----3---|-x----------3-3-3-|--3--3-4-5---------|--------------------|
                    H       E  E E E    E  E E E H          Q   E E  H


                      B5/A                                 F5    D5     F5
  PM----|     PM               PM--|    PM-----|               PM
  E E E E E E E E   E Q.   +H          +H        E E E E    Q  E E +Q    Q
|-----------------|------------------|-------------------|------------------|
|-----------------|------------------|-------------------|------------------|
|---------5s7---5-|---4----(4)-------|-(4)-------5s7---x-|-10----7-(7)--10--|
|---------5s7---5-|---4----(4)-------|-(4)-------5s7---x-|-10----7-(7)--10--|
|-0-0-0-0-----0---|------------0-0-0-|--0--0-0-0---------|------------------|
|-----------------|------------------|-------------------|-----8------------|
                    H       E  E E E    E  E E E H


                       1st, 2nd Verses
  PM            PM           PM--|     PM----------|     PM
  E E +Q    E E E E     +H        E  E E E   E E E E E E E E
|-------------------||---------------------|-----------------|
|-------------------||o--------------------|-----------------|
|---7-(7)\--------3-||--(3)------(3)-0-----|---------3s5---3-|
|---7-(7)\--3s5---3-||--(3)------(3)-0-----|---------3s5---3-|
|-------------------||o--------------------|-----------------|
|-8-------------3---||-------3-3--3----3-3-|-3-3-3-3-----3---|
                         Q   E E  H


    A5/G                             Gm7
             PM--|    PM---| PM    PM         PM--|     PM|
  E Q.   +H          +Q.     E E E E E   +H        E  E E E
|------------------|-------------------|--------------------|
|------------------|-------------------|--------------------|
|---2----(2)-------|-(2)-------3s5---3-|-(3)------(3)-0-----|
|---2----(2)-------|-(2)-------3s5---3-|-(3)------(3)-0-----|
|------------------|-------------------|--------------------|
|-x----------3-3-3-|--3--3-3-3-----3---|------3-3--3----3-3-|
  H       E  E E E    E  E E E H          Q   E E  H


                      A5/G                               Bsus4
  PM----|     PM               PM--|    PM-| PM|      PM
  E E E E E E E E   E Q.   +H          +Q    Q   E E  E  E
|-----------------|------------------|---------------------||
|-----------------|------------------|-------------------5-||
|---------3s5---3-|---2----(2)-------|-(2)-------3s5-----4-||
|---------3s5---3-|---2----(2)-------|-(2)-------3s5-----4-||
|-----------------|------------------|---------------(0)-2-||
|-3-3-3-3-----3---|-x----------3-3-3-|--3--3-3-3-----------||
                    H       E  E E E    E  E E E H


 Pre-Chorus
                                     Em
       PM----------------| PM|
  +W                 +Q    Q   E E E E   +Q   E  E  +H
|------------------|-------------------|---------------------|
|-(5)--------------|-(5)-------5-5---0-|-(0)--0-(0)-(0)------|
|-(4)--------------|-(4)-------4-4---0-|-(0)-----0--(0)------|
|-(4)--------------|-(4)-------4-4-----|---------------------|
|-(2)--2-2-2-2-2-2-|--2--2-2-2---------|---------------------|
|------------------|---------------0---|-----------------0-0-|
  +Q   E E E E E E    E  E E E H          H          Q   E E


                            Csus2
  +Q.     E E E E E   E E E E +Q   Q    H    +E  E E E
|-------------------|-----------------|----------------|
|-(0)---------------|-------3-(3)-----|-3----(3)-------|
|-(0)---------------|-------0-(0)--0--|----------------|
|-------------------|-----------------|----------------|
|-------------------|-0-3p2-3-(3)-----|----------0h2h3-|
|--0--0-0-0-0-0-2-3-|-----------------|----------------|
   E  E E E H


        F5              N.C.      F5    D5     F5      D5
                                        PM           PM
  E E E E +H       +Q   H.         Q  E E +Q    Q    E Q.   E E Q
|----------------|--------------|------------------|---------------||
|----------------|------x\------|------------------|---------------||
|----------------|------x\------|-10----7-(7)--10--|---7----7-7----||
|-0h3p2-3-(3)----|-(3)--x\------|-10----7-(7)--10--|---7----7-7----||
|-------3-(3)----|-(3)----------|------------------|---------------||
|-------1-(1)----|-(1)----------|-----8------------|-8-------------||


 Chorus
     G/E                   A    F#                            G
  Q   H.         +H      E  E E  E    +W            +H      E  E Q
|-------------|--------------------|-------------|------------------|
|----12-------|-(12)----12s14---11-|-(11)--------|-(11)----11s12----|
|----12-------|-(12)----12s14---11-|-(11)--------|-(11)----11s12----|
|----12-------|-(12)----12s14---11-|-(11)--------|-(11)----11s12----|
|----10-------|-(10)----10s12----9-|--(9)--------|--(9)-----9s10----|
|-----0-------|--(0)----------0----|-------------|------------------|


                                                         2/4
   E  E  E  E Q  Q    +E  E E E H      +H     +E   Q.     E E E E
|-------------------|----------------|------------------|----------|
|-14-14-15-14----7--|-(7)-8-7---5----|-(5)----(5)-------|----------|
|-14-14-14-14----7--|-(7)-7-7---5----|-(5)----(5)-------|-5-5-5-5--|
|-14-14-14-14-------|----------------|------------------|-5-5-5-5--|
|-12-12-12-12-------|----------------|------------------|----------|
|-------------------|----------------|------------17\---|----------|


                                               1.
     G/E                   A       DsuD4                 DsDs4
 4/4
  Q   H.         +H      E  E Q    Q  Q  H      +H     E E Q
|-------------|------------------|------------|--------------|
|----12-------|-(12)----12s14----|-8--7-------|--------7h8-7-|
|----12-------|-(12)----12s14----|-7-----7----|-(7)----7---7-|
|----12-------|-(12)-------------|-7----------|--------------|
|----10-------|-(10)-------------|------------|--------------|
|-----0-------|--(0)-------------|------------|--------------|


  C5   F5        E5                             E          N.C.  Gm7
                                                               PM
  Q  E  E  +E  E Q    +W           +Q   Q  Q  E E   +H     E E E E
|----------------0--|-(0)--------|-(0)--0---------|-----------------||
|----------------0--|-(0)--------|-(0)-----0------|----------------o||
|-5----10-(10)------|------------|------------2-1-|-(1)----3s5---3--||
|-5----10-(10)---2--|-(2)--------|-(2)------------|-(2)----3s5---3--||
|----------------2--|-(2)--------|-(2)------------|-(2)------------o||
|----------------0--|-(0)--------|-(0)------------|-(0)--------3----||
                                   +W               +H     H


  2.
           DsDs4  C5   F5        Esus4
   H     E E Q    Q  E  E  +E  E Q    +W
|---------------|----------------0--|-(0)----|
|--------7h8-7--|----------------0--|-(0)----|
|-(7)----7---7--|-5----10-(10)---2--|-(2)----|
|---------------|-5----10-(10)---2--|-(2)----|
|---------------|----------------2--|-(2)----|
|---------------|----------------0--|-(0)----|


                            Bridge
                             N.C.
                              PM---------------|
  H.      Q    +W             E  E  E E E  E E E
|------------|------------||---------------------|
|---------0--|-(0)--------||-------10-----10-----|
|---------1--|-(1)--------||--------9------9-----|
|-2----------|------------||---------------------|
|------------|------------||-(0)--------x------x-|
|------------|------------||---------------------|


  D                E
                   PM--------|
  H       E E Q    E E E E E E E E   E E E E E E E E
|----------------|-----------------|-----------------|
|-9-9p7---7-7p5--|-----------------|-----------------|
|-9-9-----7-7----|-----------------|---4-----2-----1-|
|----------------|-----9-----9---2s|=6---0-4---0-2---|
|----------------|-7-7-7---7-7-----|-----------------|
|----------------|-----------------|-----------------|
  E E E E E Q.


    PM-----|      PM                    PM--------|         PM|
  E E  E E E  E E E   H        E E Q    E E E E E E E E   E E E E Q.   +E
|-------------------|---7-------------|-----------------|--------------------|
|-----10-----10-----|-9---7p---7-7p5--|-----------------|--------------------|
|------9------9-----|-9--------7-7----|-----------------|---4-2---1----------|
|-------------------|-----------------|-----9-----9---2s|=6-6-4---2----(2)/--|
|---0------0------0-|-----------------|-7-7-7---7-7-----|--------------------|
|-------------------|-----------------|-----------------|--------------------|
                      E E E  E E Q.


  PM|      PM                          PM--|   PM
  E E  E E E  E E E   H       E E Q    E E E E E E E E   E E E E E E E E
|-------------------|----------------|-----------------|------------------|
|-----10-----10-----|-9-9p7---7-7p5--|-----------------|------------------|
|------9------9-----|-9-9-----7-7----|-----------------|---4-----2-----1--|
|-------------------|----------------|-----9-----9---2s|=6---0-4---0-2----|
|-------------------|----------------|-7-7-7---7-------|------------------|
|-0-0----x-x------x-|----------------|-----------------|------------------|
                      E E E E E Q.


  A                   D                E                       N.C.  C5
  PM|      PM                          PM|   PM|   PM|
  E E  E E E  E E E   H       E E Q    E E E E E E E E   Q  Q  E E E  E
|-------------------|----------------|-----------------|---------------------||
|-----10-----10-----|-9-9p7---7-7p5--|-----------------|---------------------||
|------9------9---9-|-9-9-----7-7----|-----------------|---------------------||
|-------------------|----------------|-----9-----9-----|-9------------5------||
|-0-0------0--------|----------------|-7-7-7-7-7-7-7-7-|-7-----7-6-5--3------||
|-------------------|----------------|-----------------|----0----------------||
|                     E E E E E Q.
|
|                                                        Gtr II
| W                   W                W                 H     Q   E  E
|-------------------|----------------|-----------------|-------------15------||
|-------------------|----------------|-----------------|-------------15b17===||
|-------------------|----------------|-----------------|---------------------||
|-------------------|----------------|-----------------|---------------------||
|-------------------|----------------|-----------------|---------------------||
|-------------------|----------------|-----------------|---------------------||


 Guitar Solo
            PM---|     PM----|
   +E    E  E    E  E  E     E  E
|---------------------------------|
|---------------------------------|
|---------------------------------|
|--(5)---5--5----5--5--5-----5--5-|
|--(3)---3--3----3--3--3-----3--3-|
|---------------------------------|
|
|  +E    E  Q       E  Q        E
|-(15)--15-15------15-15----------|
|-(15)r----15b17------15b17====15-|
|---------------------------------|
|---------------------------------|
|---------------------------------|
|---------------------------------|


                     D D#E5
         PM|                       PM|      PM|
  +E  E  E  E    E   E E E   +E  E E E    E E E  E
|--------------------------|--------------------------|
|--------------------------|--------------------------|
|--------------------------|--------------------------|
|-(5)-5--5--5----5-----8-9-|-(9)-9-9-9----9-9-9--9----|
|-(3)-3--3--3----3---5-6-7-|-(7)-7-7-7----7-7-7--7----|
|--------------------------|--------------------------|
|
|                                                \1.5
|  Q     E  E   +Q     E E   +S  S E H          +Q
|-15----15-15--(15)\-------|--------------------------|
|-------15-15r-(15)\---3h5-|-(5)p3p0------------------|
|--------------------------|---------2b3========(2)r--|
|--------------------------|--------------------------|
|--------------------------|--------------------------|
|--------------------------|--------------------------|


                      D#    D C5
      PM|             PM----|                PM---|          PM---|
   E  E   E     E  E  E     E E   +E   E     E    E    E     E    E    E
|-------------------------------|-------------------------------------------|
|-------------------------------|-------------------------------------------|
|-------------------------------|-------------------------------------------|
|--9--9---9-----9--9--------7-5-|-(5)--5-----5----5----5-----5----5----5----|
|--7--7---7-----7--7--6-----5-3-|-(3)--3-----3----3----3-----3----3----3----|
|-------------------------------|-------------------------------------------|
|
|           \7______________/
|                     |-3-|
| +Q      S E.    +E  S S S Q      E   S  S  S  S S S  S  S  S  S S S  S  S
|-------------------------------|-----10-10-10-10p7p0-12-12-12-12p9p0-15-15-|
|-------------------------------|-------------------------------------------|
|-(2)---------------------------|-------------------------------------------|
|-------------------------x-----|-------------------------------------------|
|-----------------------x-------|-------------------------------------------|
|-------/15p0-----(0)-x-----x---|-------------------------------------------|


                                    D5    D#5 E5
               PM--------|
  +E      E    E          E     E    E     E  E
|--------------------------------------------------|
|--------------------------------------------------|
|--------------------------------------------------|
|-(5)-----5----5----------5-----5----7-----8--9----|
|-(3)-----3----3----------3-----3----5-----6--7----|
|--------------------------------------------------|
|
|  S   S  S S  S  S       S  S  S S  S  S  E  E
|-15--15p12p0-17-17b17.5-17-17p14p0-20-20-20\------|
|--------------------------------------------------|
|---------------------------------------------4s===|
|--------------------------------------------------|
|--------------------------------------------------|
|--------------------------------------------------|


                                                                   D#D5   C5
          PM----|            PM|
  +E   E  E     E   E        E  E   E        E     E  E   E    E   E  E   E
|-----------------------------------------|-----------------------------------|
|-----------------------------------------|-----------------------------------|
|-----------------------------------------|-----------------------------------|
|-(9)--9--9-----9---9--------9--9---9-----|--9-----9--9---9----9---8--7---5---|
|-(7)--7--7-----7---7--------7--7---7-----|--7-----7--7---7----7---6--5---3---|
|-----------------------------------------|-----------------------------------|
|
|                                   \0.5/    \1____/
|                                                                     |--3--|
|  E   E  Q        +S   +S   E  E  +E        E    +Q     +E   +Q      E E   E
|-----12----------------------------------|-----------------------------------|
|--------15b17====(15)r(15)p12h15-(15)----|-12---(12)---(12)-(12)\------------|
|-13--------------------------------------|-----------------------------9p==0-|
|-----------------------------------------|--------------------------/9-------|
|-----------------------------------------|-----------------------------------|
|-----------------------------------------|-----------------------------------|


                                                            D5D#E5
          PM|     PM|                     PM--------|
  +E    E E E  E  E  E  E   +E  E         E          E   E  E E E
|-------------------------|----------------------------------------|
|-------------------------|----------------------------------------|
|-------------------------|----------------------------------------|
|-(5)---5-5-5--5--5--5--5-|-(5)-5---------5----------5---5--7-8-9--|
|-(3)---3-3-3--3--3--3--3-|-(3)-3---------3----------3---3--5-6-7--|
|-------------------------|----------------------------------------|
|
|                                  \1.5/      \1.5/      \1
|  H          +Q    +E  E    E.   +S     +S  +S     +E  +H
|-------------------------|----------------------------------------|
|-------------------------|----------------------------------------|
|--2b3========(2)r==(2)-0-|-[2]---(2)----(2)-(2)----(2)-(2)--------|
|-------------------------|----------------------------------------|
|-------------------------|----------------------------------------|
|-------------------------|----------------------------------------|


                                               D#5D5 C5
        PM--|        PM-|              PM|
  +E  E E   E  E     E   E  E   +E  E  E  E  E  E  E  E
|-----------------------------|-------------------------|
|-----------------------------|-------------------------|
|-----------------------------|-------------------------|
|-(9)-9-9---9--9-----9---9--9-|-(9)-9--9--9--9--8--7--5-|
|-(7)-7-7---7--7-----7---7--7-|-(7)-7--7--7--7--6--5--3-|
|-----------------------------|-------------------------|
|
|              \0.5  /
|  Q    Q     +E    +E  +E  E    E  E  E  E  E  E  E  E
|-----------------------------|-------12-------12----12-|
|-----------------------------|----------12-15----15----|
|--0----6b7r==(6)---(6)-(6)s4s|==3s12-------------------|
|-----------------------------|-------------------------|
|-----------------------------|-------------------------|
|-----------------------------|-------------------------|


            PM|      PM---|
   E     E  E  E  E  E  E  E          E   E  E  E  Q     Q
|---------------------------------|-----------------------------|
|---------------------------------|-----------------------------|
|---------------------------------|-----------------------------|
|--5-----5--5--5--5--5--5--5------|---5---5--5--5--5-----5/-----|
|--3-----3--3--3--3--3--3--3------|---3---3--3--3--3-----3/-----|
|---------------------------------|-----------------------------|
|
|                          ~~~~~~~~~~~~~~~               ~~~~~~
|  E     E  E  E  E  E  E  E         +Q      E  E  E  E  Q
|-------12-------12---------------|---------12-------12---------|
|-15b17----12-15----12-15-15pb17==|=(15)r------12-15----15b17===|
|---------------------------------|-----------------------------|
|---------------------------------|-----------------------------|
|---------------------------------|-----------------------------|
|---------------------------------|-----------------------------|


  G5       E5(type 2)    G5
    Q.     E    +Q        Q
|--------------------------------|
|--------------------------------|
|--12------9----(9)------12------|
|--12------9----(9)------12------|
|--10------7----(7)------10------|
|--------------------------------|
|
|   ~~~~~
|  +Q    a Q        +E    Q.
|--------------------------------|
|-(15)r----5--------(5)---8------|
|----------7b9======(7)r-10b12---|
|--------x-----------------------|
|--------------------------------|
|--------------------------------|


   +Q.      +E    Q.       +E            Wx12
|--------------------------------||--------------|
|--------------------------------||--------------|
|-(12)-----(12)\--9--------(9)\--||--------------|
|-(12)-----(12)\--9--------(9)\--||--------------|
|-(10)-----(10)\--7--------(7)\--||--------------|
|--------------------------------||--------------|
|
|   H             Q.       +E       Wx12
|--------------------------------||--------------|
|--12------------17-------(17)\--||--------------|
|--14b16---------19b21====(19)r\-||--------------|
|--------------------------------||--------------|
|--------------------------------||--------------|
|--------------------------------||--------------|


                     1.,2.,3.,4.         5.
    N.C.                                          E5D#D5C5
    PM------------------------------------------|
    E E E E E E E E   E E E E E E E E     E E E E E E E E
||------------------|------------------||-----------------||
||o-----------------|-----------------o||-----------------||
||------------------|------------------||-----------------||
||------------------|------------------||---------9-8-7-5-||
||o-----------------|-----------------o||---------7-6-5-3-||
||--0-0-0-0-0-0-0-0-|-0-0-0-0-0-0-0-0--||-0-0-0-0---------||


 Outro
                                D5D#E5                                  D#D C5
        PM|   PM|       PM|     PM|           PM|   PM|           PM|
  +E  E E E E E E E   E E E E E E E E   +E  E E E E E E E   +E  E E E E E E E
|-------------------|-----------------|-------------------|-------------------|
|-------------------|-----------------|-------------------|-------------------|
|-------------------|-----------------|-------------------|-------------------|
|-(5)-5-5-5-5-5-5-5-|-5-5-5-5-5-7-8-9-|-(9)-9-9-9-9-9-9-9-|-(9)-9-9-9-9---7-5-|
|-(3)-3-3-3-3-3-3-3-|-3-3-3-3-3-5-6-7-|-(7)-7-7-7-7-7-7-7-|-(7)-7-7-7-7-6-5-3-|
|-------------------|-----------------|-------------------|-------------------|


                                D5D#E5
      PM|   PM|           PM|                 PM|   PM--|
  E E E E E E E E   +E  E E E E E E E   +E  E E E E E E E
|-----------------|-------------------|-------------------|
|-----------------|-------------------|-------------------|
|-----------------|-------------------|-------------------|
|-5-5-5-5-5-5-5-5-|-(5)-5-5-5-5-7-8-9-|-(9)-9-9-9-9-9-9-9-|
|-3-3-3-3-3-3-3-3-|-(3)-3-3-3-3-5-6-7-|-(7)-7-7-7-7-7-7-7-|
|-----------------|-------------------|-------------------|


                 D#D5C5
   PM-----|                            PM---|    PM---|
  +E  E E E E    E E  E         E   E  E    E E  E    E E
|---------------------------|-----------------------------|
|---------------------------|-----------------------------|
|---------------------------|-----------------------------|
|-(9)-9-9-9-9----8-7--5-----|---5---5--5----5-5--5----5-5-|
|-(7)-7-7-7-7----6-5--3-----|---3---3--3----3-3--3----3-3-|
|---------------------------|-----------------------------|
|
| Gtr II
|  H        E    E E  E        +E   E  E    E E  E    E E
|---------------------------|-----------------------------|
|----------------7-7--8-----|--(8)--8-------8-8-------8-8-|
|-----------9b11-----10b12==|=(10)r---10b12-----10b12-----|
|---------------------------|-----------------------------|
|---------------------------|-----------------------------|
|---------------------------|-----------------------------|


                    D5 D#5E5
          PM|
  +E    E E E  E     E  E  E
|--------------------------------|
|--------------------------------|
|--------------------------------|
|-(5)---5-5-5--5-----7--8--9-----|
|-(3)---3-3-3--3-----5--6--7-----|
|--------------------------------|
|
|  E    E E E  E     E  E  E
|--------------------------------|
|-------8-8-8-------10-10-12-----|
|-10b12-------12b14-------14b16==|
|--------------------------------|
|--------------------------------|
|--------------------------------|


            PM---|      PM---|
   +E    E  E     E  E  E     E  E
|----------------------------------|
|----------------------------------|
|----------------------------------|
|--(9)---9--9-----9--9--9-----9--9-|
|--(7)---7--7-----7--7--7-----7--7-|
|----------------------------------|
|
|  +E    E  E     E  E  E     E  E
|----------------------------------|
|-(12)--12-------12-12-------12-12-|
|-(14)r----14b16-------14b16-------|
|----------------------------------|
|----------------------------------|
|----------------------------------|


                        D#D  C5
            PM|                                PM|      PM---|
  +E     E  E  E  E     E  E  E        +E   E  E  E  E  E     E  E
|-----------------------------------|------------------------------|
|-----------------------------------|------------------------------|
|-----------------------------------|------------------------------|
|-(9)----9--9--9--9--------7--5-----|--(5)--5--5--5--5--5-----5--5-|
|-(7)----7--7--7--7-----6--5--3-----|--(3)--3--3--3--3--3-----3--3-|
|-----------------------------------|------------------------------|
|
|  E     E  E  E  Q        E  E        +Q      E  E  E  E     E  E
|-----------------------------------|------------------------------|
|-------12-12-12----------15--------|---------13-13-13-------13-13-|
|-14b16----------14b16\------15b17==|=(15)r------------15b17-------|
|-----------------------------------|------------------------------|
|-----------------------------------|------------------------------|
|-----------------------------------|------------------------------|


            PM|
  +E     E  E  E  E       Q     +E
|------------------------------------|
|------------------------------------|
|------------------------------------|
|-(5)----5--5--5--5-------5-----(5)/-|
|-(3)----3--3--3--3-------3-----(3)/-|
|------------------------------------|
|
|  E     E  E  E  E      +Q      E
|------------------------------------|
|-------13-13-13---------------------|
|-15b17----------15b17==(15)r\-------|
|------------------------------------|
|------------------------------------|
|------------------------------------|


  E5     D  E5           D  E5       D  E5     D  E5       D  E5
   Q      E  E      +E    E  Q        E  Q      E  E     E  E  E
|----------------------------------|---------------------------------|
|----------------------------------|---------------------------------|
|----------------------------------|---------------------------------|
|--9------0--9------(9)---0--9-----|--0--9------0--9-----9--0--9-----|
|--7---------7------(7)------7-----|-----7---------7-----7-----7-----|
|----------------------------------|---------------------------------|
|
|                                                              ~~~~~~
|  Q      E  E      +E    E  Q        E  Q      E  E     E  E  E
|----------------------------------|--------------------12-----------|
|-15b17--12-15b17==(15)r-12-15b17--|-12-15b17--12-15b17----15-15b17==|
|----------------------------------|---------------------------------|
|----------------------------------|---------------------------------|
|----------------------------------|---------------------------------|
|----------------------------------|---------------------------------|


        D  E5     D  E5     D    E5       D  E5
   +E    E  Q      E  Q      E    E     E  E  E    +Q    Q
|------------------------------|----------------------------*|
|------------------------------|----------------------------*|
|------------------------------|----------------------------*|
|--(9)---0--9------0--9------0-|--9-----9--0--9----(9)\-----*|
|--(7)------7---------7--------|--7-----7-----7----(7)\-----*|
|------------------------------|----------------------------*|
|
|   ~~~~~   ~~~~~     ~~~~~
|  +E    E  Q      E  Q      E    E     E  E  E     Q    Q
|-------12--------12--------12-|-------12-------------------*|
|-(15)r----15b17-----15b17-----|-15b17----12-15b17-15\------*|
|------------------------------|----------------------------*|
|------------------------------|----------------------------*|
|------------------------------|----------------------------*|
|------------------------------|----------------------------*|





Comments


Popular Van Halen tabs & chords
Jamies Cryin Bass Tabs
Eruption Drum Tabs
Fire In The Hole Tabs
Girl Gone Bad Tabs
Jump 2 Tabs
Neworld Tabs
Pretty Woman 1 Tabs
Runaround Tabs
Women In Love Intro Tabs
You Really Got Me 1 Tabs


Song lyrics



↑ Back to top | Tablatures and chords are parodies/interpretations of the original songs. You may use it for private study, scholarship, research or language learning purposes only
© 2014 AZChords.com Contact us | Privacy policy | DMCA | Add/correct tabs | Request tabs | Top 50 tabs