» » »

Van Halen, Judgement Day Tabs (ver.1)

Artists:  A B C D E F G H I J K L M N O P Q R S T U V W X Y Z # 

Judgement Day Tabs (ver.1)

Van Halen Tabs
 Rating:
4/5 (4 votes)
Judgement Day lessons Tabs too difficult? Try these video lessons and learn fast
1
                Play this twice                        
------14--------------------------14-------------------------14----------------------14----------------14----------------
----------------------12---------------------12------------------------12----------------------12---------------12-------
-------------14------------------------14-------------------------14----------------------14---------------14------------
----------------------------12----------------------12------------------------12-------------------12-----------------12-

                 Play this twice
------16--------------------------16-------------------------16----------------------16----------------16----------------
----------------------14---------------------14------------------------14----------------------14---------------14-------
-------------16------------------------16-------------------------16----------------------16---------------16------------
----------------------------14----------------------14------------------------14-------------------14-----------------14-

        
------17-----------------------17-------------------------17--------------------17----------------17---------------------
----------------------15---------------------15------------------------15------------------15---------------15-----------
-------------17------------------------17-------------------------17------------------17--------------17-----------------
----------------------------15----------------------15----------------------15-----------------15-----------------15-----


------19-----------------------19-------------------------19--------------------19----------------19---------------------
----------------------17---------------------17------------------------17------------------17---------------17-----------
-------------19------------------------19-------------------------19------------------19--------------19-----------------
----------------------------17----------------------17----------------------17-----------------17-----------------17-----




-----------17---------------------------------------------------------17----------------------------------------------------
21------------------19----21--------------17------------21------------------19----21--------------17------------------
----------------------------------------------------19---------------------------------------------------------19-----------
------21--------------------------21----------------------------21--------------------------21----------------------------





-----------17---------------------------------------------------------17----------------------------------------------------
21------------------19----21--------------17------------21------------------19----21--------------17------------------
----------------------------------------------------19---------------------------------------------------------19-----------
------21--------------------------21----------------------------21--------------------------21----------------------------




Play the following until the end of the song

--------2-----2-2-2-2-2-2-2---------------------------2-2-2-^-------
4/6----------2-2-2-2-2-2-2------5-VIBRATO------2-2-2-^-------



--------4/6---\4---2---4/6---4---2---2---/6---4---2---2---4---2---- 
            
Submit corrections

comments powered by Disqus
↑ Back to top | Van Halen Tabs for Judgement Day. Lyrics for acoustic guitar and electric guitar. 1 Tablatures and chords are parodies/interpretations of the original songs. You may use it for private study, scholarship, research or language learning purposes only