>
 >
Dance The Night Away 2

Dance The Night Away 2 Guitar Tabs

Van Halen - Dance The Night Away 2 chords, tabs, tablatures, lyrics

Guitar lessons | Add/correct | Request | Top 50 tabs Artists:  A B C D E F G H I J K L M N O P Q R S T U V W X Y Z 0-9

Dance The Night Away 2 Guitar Tabs – Van Halen

CD, Sheet music, Poster

Do you like Dance The Night Away 2? Share with your friends now
Bass TabsChordsTabsTabs v2Tabs v3Tabs v4Ukulele
INTRO/CHORUS
-----------------------------------------------------------
----9---9---10--9---7---5---9---9---9---10--9---7----------
----9---9---9---9---8---6---9---9---9---9---9---8----------
----9---9---9---9---9---7---9---9---9---9---9---9----------
----7---7---7---7-----------7---7---7---7---7--------------
-7---------------------------------------------------------


---------------------------------------0-------------------
-------------4---4-5-4---------2---4----4------------------
----4---6----4---------4---4---2---4-----4-----------------
----4---6----4-------------4---2---4------4----------------
----2---4------------------2-------------------------------
-----------------------------------------------------------

---------------------------------0-------------------------
-------------4---4-5-4------------4------------------------
---4---6-----4---------4---4-4-----4-----------------------
---4---6-----4-------------4-4------4----------------------
---2---4-------------------2-2----------7--(CHORUS)--------
-----------------------------------------------------------

SOLO: Tap the Bar Chords with your strumming hand on the top of the neck, at about the 21st fret 

E E E E B B A
E E E E A A B
E E E E B B A
E E E E A A B   PICK SLIDE 


(CHORUS)





Comments


Popular Van Halen tabs & chords
Aint Talking About Love Tabs
Chinatown Tabs
Eruption 6 Tabs
Hot For Teacher 3 Tabs
Humans Being (Solo) Tabs
Pleasure Dome Tabs
Pleasure Dome 1 Tabs
Runnin' With The Devil 1 Tabs
So This Is Love? Tabs
Somebody Get Me A Doctor 3 Tabs


Song lyrics



↑ Back to top | Tablatures and chords are parodies/interpretations of the original songs. You may use it for private study, scholarship, research or language learning purposes only
© 2014 AZChords.com Contact us | Privacy policy | DMCA | Add/correct tabs | Request tabs | Top 50 tabs