» » »

Chinatown Tabs (ver.1)

Artists:  A B C D E F G H I J K L M N O P Q R S T U V W X Y Z # 

Chinatown Tabs (ver.1)

Van Halen
Rating:
0/5 (0 votes)

Hard to play? Try these video lessons and learn fast.
                Here the tab for the rythim part of the song "China Town" by Van Halen. Sorry but i 

Here the tab:



Intro:

    T  T T  T  T T
|---12-0-8-----------------------------------------------------------------|
|-----------12-0-8---------------------------------------------------------|
|------------------| x 9 (Sometimes the------------------------------------|        Then
|------------------|      speed change a bit)---------> 1^|--10-12-10| x 6-|
|--------------------------------------------------------------------------|
|--------------------------------------------------------------------------|

|-------------------------------------|
|0-0-0-0-0-0-----------------------3-3|
|2-4-5-4-0-2-2(hold)---------------2-2|
|------------2(hold)---------------0-0|
|------------------------------0-5----|
|------------------------2-3-4--------|



|-----------------------------------------------------|
|--------------------8-8----------------------3-3-----|
|----9-9-5-7-----9-9-7-7-----9-9-5-7----2-2---2-2-----|
|----9-9-5-7-----9-9---------9-9-5-7----2-2---0-0-----| x 2 (The second time
|----7-7-3-5-----7-7---------7-7-3-5----0-0-----------|      don't play the
|0-----------0-----------0------------0-----0-----0---|      6^ string at the
                                                             end)




|-------------------------|                    |--------|
|-------------------------|                    |-----3-3|
|-------------------------|                    |2-2--2-2|
|-------------------------| x 3, then--------> |2-2--0-0|
|---7-7-7-5-7-7-7-5-7-----|                    |0-0-----|
|0----------------------0-|                    |----0---|




|-------------------------|                    |------------|
|-------------------------|                    |5--8-7^8^7--|
|-------------------------|                    |-5--------7-|
|-------------------------| x 3, then--------> |--5--------7|
|---7-7-7-5-7-7-7-5-7-----|                    |------------|
|0----------------------0-|                    |------------|
            
Hard to play? Try these video lessons and learn fast. | Correct




comments powered by Disqus
↑ Back to top | Tablatures and chords are parodies/interpretations of the original songs. You may use it for private study, scholarship, research or language learning purposes only