>
 >
316 1

316 1 Guitar Tabs

Van Halen - 316 1 chords, tabs, tablatures, lyrics

Guitar lessons | Add/correct | Request | Top 50 tabs Artists:  A B C D E F G H I J K L M N O P Q R S T U V W X Y Z 0-9

316 1 Guitar Tabs – Van Halen

CD, Sheet music, Poster

Do you like 316 1? Share with your friends now
TabsTabs v2Tabs v3Tabs v4
Yeah I didnt see any 5 star tabs for this last time i checked....and thats pathetic.
This song's easy, fun, and somthing every Van Halen fan should know.....kids these
days....

Finger-pick this whole song, it sounds better

Key:
/  slide
h  hammer on
p  pull off
<> artificial harmonics
~  vibrato

E|----------------------||---------------------------------------------------|
B|------2--3-3/5-2------||------2--3--2-0--------0-0--2--------------------2-|
G|----2--------------x3-||----2----------------1--------2------2------0----2-|
D|--2------4-4/6-2------||--2------4--2-2----2-----2--2-0----0------0------2-|
A|0---------------------||0----------------0-------------------------------0-|
E|----------------------||---------------------------------2----2/3----2-0---|


E|--------------------------------------------------------------------------|
B|------2--3-3/5-2---------2--3-2h3p2--0-------0-0--2---------------------2-|
G|----2------------------2-------------------1--------2-----2-------0-----2-|
D|--2------4-4/6-2-----2------4-2h4p2--2---2-----2--2-0---0-------0-------2-|
A|0------------------0-------------------0--------------------------------0-|
E|------------------------------------------------------2-----2/3-----2-0---|


Do this whole part twice
E|---------------------------------------------------------------------|
B|------2-3-3/5--2-----------------------------------------------------|
G|----2---------------2-2~~~~~~~~~~-5-5~~~~~~~~5-5~~~~~~~--------------|
D|--2-----4-4/6--2----0-0~~~~~~~~~~-4-4~~~~~~~~3-3~~~~~~~--------------|
A|0-----------------0-------0-0-0-0-------0--0------------0--2--2/3--0-|
E|---------------------------------------------------------------------|


E|----------------------||---------------------------------------------------|
B|------2--3-3/5-2------||------2--3--2-0--------0-0--2--------------------2-|
G|----2-----------------||----2----------------1--------2------2------0----2-|
D|--2------4-4/6-2------||--2------4--2-2----2-----2--2-0----0------0------2-|
A|0---------------------||0----------------0-------------------------------0-|
E|----------------------||---------------------------------2----2/3----2-0---|

E|------------------------------0<12>-|
B|-------------------0<12>------------|
G|-------2<14>-------------2<14>------|
D|-------------2<14>------------------|
A|-0<12>------------------------------|
E|------------------------------------|

This last bunch is tapped harmonics. Just put your finger on the fret indicated and
tap the fret in < > with your picking hand.

HAVE FUN!!!





Comments


Popular Van Halen tabs & chords
Panama Drum Tabs
Big Trouble Tabs
Dreams 3 Tabs
Fire In The Hole Tabs
Humans Being Tabs
In A Simple Rhyme Tabs
Jump 2 Tabs
Mean Street Tabs
Mean Streets Tabs
Dance The Night Away Ukulele


Song lyrics



↑ Back to top | Tablatures and chords are parodies/interpretations of the original songs. You may use it for private study, scholarship, research or language learning purposes only
© 2014 AZChords.com Contact us | Privacy policy | DMCA | Add/correct tabs | Request tabs | Top 50 tabs