>
 >
Neko Te Ima 1

Neko Te Ima 1 Guitar Tabs

Van Gogh - Neko Te Ima 1 chords, tabs, tablatures, lyrics

Guitar lessons | Add/correct | Request | Top 50 tabs Artists:  A B C D E F G H I J K L M N O P Q R S T U V W X Y Z 0-9

Neko Te Ima 1 Guitar Tabs – Van Gogh

CD, Sheet music, Poster

Do you like Neko Te Ima 1? Share with your friends now
TabsTabs v2
Pesma se zasniva na razlaganju e7, C i D akorada prema
jednostavnoj shemi. Postoji jos rif koji se svira u prelazu 
i solo na pocetku i posle refrena.
Solo koji ovde predstavljan je malo doteran vibratom i mozete
ga slobodno i dalje menjati po svojoj volji.

RAZLAGANjE (4x):

SOLO:

I STROFA:
(Svira se prema razlaganju)
Hteo bih negde da te vidim, kao slucajno,
u kom dzepu ovaj grad te nocas sakrio.

PRELAZ:
Sada ne mogu da zaspim, o-o,
nesto se dogodilo,
poludeo sam sasvim, otkad mislim na tebe,
sve se izmenilo.

SOLO:

II STROFA:
I kad sam s' tobom, kao da hodam, po vrelom asfaltu.
Taman kad se noge naviknu ti vise nisi tu.

PRELAZ:

REFREN:
e			   C		D		
Neko te ima nocas, neko te voli,
Neko te ima, to nisam ja, a-a-a (3x)

SOLO:

III STROFA:
Kad sam s'tobom, kao da padam a nikad ne padnem.
Gde te sakrio ovaj grad ne mogu da te pronadjem.

PRELAZ:
(Ovaj put svirati u punim akodrima, agresivno,
bez prigusenja)

REFREN:

RAZLAGANjE:
(akordi vaze samo za razlaganje i prelaz. 
u refrenu se sviraju kao puni)
e7: x22030
C :	032000
D :	054000

s = glisando
h = cekic
L = legato
... pustiti zicu da zveci

   e7			C		 D
e -------------|-----------|-----------|----------
H -------3-----|-----------|-----------|----------
G -----0---0---|-----0-----|-----0-----|----------
D ---2-------2-|---2---2---|---4---4*--|----------
A -------------|-3-------3-|-5-------5*|----------
E -0...--------|-----------|-----------|----------

(*U svirci na koncertu Djule je ponekad izostavljao ta 
  poslednja dva tona i zavrsavao razlaganje praznom D 
  zicom) 

SOLO:

e ---------------------------|-------------------------
H -s2-2--4-------------------|-s2-2--4-----------------
G ------------2-2-2~~~L0-----|-----------2-2-2h3L2-L0--
D ---------2---------------2~|---------2-------------2~
A ---------------------------|-------------------------
E ---------------------------|-------------------------

e ---------------------------|-------------------------
H -s2-2--4-------------------|-s2-2--4-----------------
G ------------2-2-2~~~L0-----|-----------2-2-2~~~...L0-
D ---------2---------------2~|---------2-------------2~
A ---------------------------|-------------------------
E ---------------------------|-------------------------

PRELAZ:
(svira se priguseno osim pred kraj)
   e           C       D  
e ----------|--------|-------|-------------------------
H ----------|--------|-------|-------------------------
G ----------|--------|-------|-------------------------
D ----2---2-|-2--2-2-|-4-4-4-|-------------------------
A ----2---2-|-3--3-3-|-5-5-5-|-------------------------
E -0----0---|--------|-------|-------------------------





Comments


Popular Van Gogh tabs & chords
Disem Chords
Nesto Vuce Me Dole Chords
Aleluja Tabs
Glas Tabs
Mama 1 Tabs
Neko Te Ima Tabs
Neko Te Ima Nocas Tabs
Opasan Ples Tabs
Polje Snova 1 Tabs
Zamisli Tabs


Song lyrics



↑ Back to top | Tablatures and chords are parodies/interpretations of the original songs. You may use it for private study, scholarship, research or language learning purposes only
© 2014 AZChords.com Contact us | Privacy policy | DMCA | Add/correct tabs | Request tabs | Top 50 tabs