» » »

Van Gogh, Klatno Tabs (ver.1)

Artists:  A B C D E F G H I J K L M N O P Q R S T U V W X Y Z # 

Klatno Tabs (ver.1)

Van Gogh Tabs
Rating:
0/5 (0 votes)
Klatno lessons Tabs too difficult? Try these video lessons and learn fast
                Van Gogh


whole song is played with distorsion


intro
e|-------------------------------------------------------------------|
h|-------------------------------------------------------------------|
g|-------------------------------------------------------------------|
d|-9------------------7-------------------12----------------------4--|
a|-7------------------5-------------------10----------------------2--|
e|-------------------------------------------------------------------|
I mi sve smo probali.......... i sve prodali ......za samo jedan dan

i sva ......nasa nadanja........su izbledela..............od cekanja (and so on)


verse, play it twice
|-----------------------------------|
|-----------------------------------|
|-----------------------------9--7--|
|-----------------------------7--5--|
|--9--7--9--9--7--9--9--7--7--------|
|--7--5--7--7--5--7--7--5--5--------|


solo
|-----------------------------------------------------------------------------------------|
|-----------------------------------------------------------------------------------------|
|--2/9-10-10/12-12-7-5-7-7/9-9/12-12-11--2/9-10-10/12-12-7-5-7-7/9-9/12-12-11-11/14-14-13-|
|-----------------------------------------------------------------------------------------|
|-----------------------------------------------------------------------------------------|
|-----------------------------------------------------------------------------------------|


----------------------------|
----------------------------|
--13/16-16-15-15/3-3/5-5/7--|
----------------------------|
----------------------------|
----------------------------|


ending is simple play this four times
|-----------------------------------...---------------|
|-----------------------------------...---------------|
|-----------------------------9--7--...---------------|
|-----------------------------7--5--...---------------|
|--9--7--9--9--7--9--9--7--7--------...-5-5-5-7-7-7-9-|
|--7--5--7--7--5--7--7--5--5--------...-3-3-3-5-5-5-7-|

                                 ho, ho            hoooo.

that is it.
            

comments powered by Disqus
↑ Back to top | Van Gogh Tabs for Klatno. Lyrics for acoustic guitar and electric guitar. Tablatures and chords are parodies/interpretations of the original songs. You may use it for private study, scholarship, research or language learning purposes only