>
 >
Brod Od Papira 1

Brod Od Papira 1 Guitar Tabs

Van Gogh - Brod Od Papira 1 chords, tabs, tablatures, lyrics

Guitar lessons | Add/correct | Request | Top 50 tabs Artists:  A B C D E F G H I J K L M N O P Q R S T U V W X Y Z 0-9

Brod Od Papira 1 Guitar Tabs – Van Gogh

CD, Sheet music, Poster

Do you like Brod Od Papira 1? Share with your friends now
TabsTabs v2
Uvod: Hm

  Strofa:
     Hm
Kazu pustas
Em                 Hm
Brodove rekom papirne
          Em
Na svakom pise
             Hm
Cekam, a nema te
         A             G
Bez tebe ne smem, ja ne umem
Hm
Pisati, smejati se, hodati
Em
Kazu da pustas
                   Hm
Zmajeve nebom najvise
          Em
Na svakom pise
           Hm
Zasto nema te
        A               G
Ja tebe ne smem, a ti ne umes
Hm
Imati, lagati, sanjati

  Refren:
D Dsus4 D     A
Kada odes onda ucini to
G          A
Da tako ne izgleda
     D A     Em G
Kada odes od mene

  (U prvom refrenu:)
           Hm
Ucini samo to samo to

  (U drugom refrenu:)
           D        A        G
Ucini samo to, samo to, samo to
   A            Hm
Da tako ne izgleda

  Solo:
  Hm               Hm               Hm               Hm
E|----------------|----------------|----------------|----------------|
H|----------------|----------------|----------------|----------------|
G|----------------|----------------|----------------|----------------|
D|12p9------------|(9)-------------|(9)-------------|(9)-------------|
A|----------------|----------------|----------------|--------\7----5-|
E|----------------|----------------|----------------|----------------|

  Em               Em               Em               Em
E|----------------|----------------|----------------|----------------|
H|----------------|----------------|----------------|----------------|
G|----------------|----------------|----------------|--7-----7-------|
D|----------------|----------------|----------------|----------9-----|
A|----------------|----------------|5h7-------------|----------------|
E|7---------------|(7)-------------|----------------|----------------|

  Hm               Hm               Hm               Hm
E|----------------|----------------|----------------|------7---------|
H|----------------|----------------|----------------|----7--10-7-----|
G|9b11------------|(11)------------|(11)------------|--9---------9-7-|
D|----------------|----------------|----------------|----------------|
A|----------------|----------------|----------------|----------------|
E|----------------|----------------|----------------|----------------|

  A                A                G                G
E|----------------|----------------|----------------|----------------|
H|----------------|--7-----7-------|--7-----7-7-----|----------------|
G|9b11------------|--7-----7-------|--7-----7-7-9-7-|11r9-7-9-7------|
D|----------------|------------9---|----------------|-----------9-7--|
A|----------------|----------------|----------------|----------------|
E|----------------|----------------|----------------|----------------|

  Hm               Hm               Hm               Hm
E|----------------|----------------|----------------|----------------|
H|----------------|----------------|----------------|----------------|
G|----------------|----------------|----------------|----------------|
D|9---------------|----------------|----------------|----------------|
A|----------------|--9-7-5-7-5-----|----------------|----------------|
E|----------------|------------5---|7---------------|(7)-------------|

  Korisceni akordi:
Hm   -X24432
Em   -022000
A    -X02220
G    -320033
D    -XX0232
Dsus4-XX0233





Comments


Popular Van Gogh tabs & chords
Kad Znam Da Ne Volis Me Chords
Ljubav Je Chords
Nesto Vuce Me Dole Chords
Da Li Zna Tabs
Deja Vu Tabs
Manitua Mi Tabs
Polje Snova Tabs
Polje Snova 1 Tabs
Tragovi Proslosti Tabs
Disem Ukulele


Song lyrics



↑ Back to top | Tablatures and chords are parodies/interpretations of the original songs. You may use it for private study, scholarship, research or language learning purposes only
© 2014 AZChords.com Contact us | Privacy policy | DMCA | Add/correct tabs | Request tabs | Top 50 tabs