» » »

Vanessa Williams, Colors Of The Wind Tabs (ver.1)

Artists:  A B C D E F G H I J K L M N O P Q R S T U V W X Y Z # 

Colors Of The Wind Tabs (ver.1)

Vanessa Williams Tabs
 Rating:
4.2/5 (5 votes)
Colors Of The Wind lessons Tabs too difficult? Try these video lessons and learn fast
                Colors of the Wind by Vanessa Williams

e|-0-3-3-0-0--------------0-0-3-3-0-0---------3------------------------------|
B|-----------3--3-1-3------------------3--3-1--------------------------------|
G|--------------------2------------------------------------------------------|
D|---------------------------------------------------------------------------|
A|---------------------------------------------------------------------------|
E|---------------------------------------------------------------------------|

e|-3-3/5-3-3-0-0----------------0-----------0-3----0-------------------------|
B|---------------3-3-1-3------1---3-1---1-3------3---------------------------|
G|-----------------------2---------------------------2-----------------------|
D|---------------------------------------------------------------------------|
A|---------------------------------------------------------------------------|
E|---------------------------------------------------------------------------|

e|-0-3-3-0-0--------------0-0-3-3-0-0---------3------------------------------|
B|-----------3--3-1-3------------------3--3-1--------------------------------|
G|--------------------2------------------------------------------------------|
D|---------------------------------------------------------------------------|
A|---------------------------------------------------------------------------|
E|---------------------------------------------------------------------------|

e|-3-3/5-3-3-0-0----------------0---------0----------------------------------|
B|---------------3-3-1-3------1---3-1---1---3--1----1-1----------------------|
G|-----------------------2------------------------2--------------------------|
D|---------------------------------------------------------------------------|
A|---------------------------------------------------------------------------|
E|---------------------------------------------------------------------------|

e|-3-5-5/8-7-7-5-5-3-0----------3-5/8-7-7-5-5-3-3p0-3------------------------|
B|-----------------------5-8-10----------------------------------------------|
G|---------------------7-----------------------------------------------------|
D|---------------------------------------------------------------------------|
A|---------------------------------------------------------------------------|
E|---------------------------------------------------------------------------|

e|-3-5-5/8-7-7-5-5-3-3h5-3---------------------------------------------------|
B|---------------------------------------------------------------------------|
G|-------------------------7-------------------------------------------------|
D|---------------------------------------------------------------------------|
A|---------------------------------------------------------------------------|
E|---------------------------------------------------------------------------|

e|-----0-3-3-0-0----------------0-3-3-0-0------------------------------------|
B|-1-3-----------3--3-1-5---1-3------------3---1-1---------------------------|
G|-------------------------------------------2-------------------------------|
D|---------------------------------------------------------------------------|
A|---------------------------------------------------------------------------|
E|---------------------------------------------------------------------------|

repeat
            
Submit corrections

comments powered by Disqus
↑ Back to top | Vanessa Williams Tabs for Colors Of The Wind. Lyrics for acoustic guitar and electric guitar. Tablatures and chords are parodies/interpretations of the original songs. You may use it for private study, scholarship, research or language learning purposes only