>
 >
Save The Best For Last

Save The Best For Last Guitar Tabs

Vanessa Williams - Save The Best For Last chords, tabs, tablatures, lyrics

Guitar lessons | Add/correct | Request | Top 50 tabs Artists:  A B C D E F G H I J K L M N O P Q R S T U V W X Y Z 0-9

Save The Best For Last Guitar Tabs – Vanessa Williams

CD, Sheet music, Poster

Do you like Save The Best For Last? Share with your friends now
ChordsChords v2TabsUkulele

Vanessa Williams - Save the Best for Last                                                     
---------------------------------------------------------------------------
              SAVE THE BEST FOR LAST  Vanessa Williams                     
---------------------------------------------------------------------------

 INTRO:
e|--------11---10--8--6---------6----6-8-6--------6-----------------------|
B|-----11-11---11--9--8------9----9------6-6--------9---------------------|
G|--12-12-12---10--8--8----8------8------8-8--7-7-----8----8--------------|
D|--13-------------------8-----------------8--8-8----------8--------------|
A|--------------------------------------------------------10--------------|
E|------------------------------------------------------------------------|

  VERS:
e|--10-------8--------6-------------------------8-----------6-------------|
B|--11-------9--------8--------------9-8--------9-----------6-------------|
G|--12-------8--------8-----------8-----------8-----------8---------------|
D|---8-------6-----------------8-----------------------8------8-----------|
A|--------------------6--------------------11-----11----------------------|
E|------------------------------------------------------------------------|

e|--------8---------11-----6---------8----------6-------------------------|
B|--------8-------11-------6------6-------9-----8------------9-8----------|
G|------8------------------7--------------8-----8---------8---------------|
D|-------------------------8---8---------10------------8------------------|
A|----------------------------------------------6-------------------------|
E|---8--------------------------------------------------------------------|
                                                                   
e|-------------6----------------------------------------------------------|
B|-------9-----6-----8--------8----------------------------------4-6-4----|
G|-----8-------8-----8--------8------8---10-12--12------------------------|
D|-------------8-----8------8-------10---12-13--13------------------------|
A|--11------------------------------------------11-----11-----------------|
E|-----------------------11--------------------------11-------------------|

e|------------------------------------------------------------------------|
B|-------------------3-4---------------3----------------------------------|
G|---------3---------3-3-------3--------------3------0--------------------|
D|-------5-----5-----3-3-----3-------3------3--3-----1--------------------|
A|-----6-----6---------------------1-----------------1--------------------|
E|--3----------------------1-----1----------------------------------------|

e|------------3--6--------------------------------------------------------|
B|------4--6--4--4------6--------6-----4--------------2-4---1-------------|
G|------3--3--3--3------6--------6-----3-----5------1--------1-3----------|
D|------5--5--5--5------6------6-----------5------------------------------|
A|-------------------------------------3----------4-----------------------|
E|------6--6--6--6------6----6--------------------------------------------|
           T     T
e|-----------------------------11--10---8---6-----------------------------|
B|------6-----6--------------11----11---9---8---------9-8--------9--------|
G|------7-----7------------12------10---8---8-------8----------8----------|
D|------8-----8-----------------------------------8-----------------------|
A|----------------------------------------------------------11------------|
E|------6--6--------------------------------------------------------------|

e|------6--------8--------------------------------------------------------|
B|------6--------8------------------------------------9-8--------9--------|
G|------8--------8----------3-------3-------3-------8------------8--------|
D|------8-------10--------3-------1-------5-------8-----------10----------|
A|--------------10------1-----1-----------------------------11------------|
E|------------------------------4-----4-3---------------------------------|

e|-----6-----6-------------6-8-6----------6-8-6---------------------------|
B|-----6-----------4---------------------------------4-----4--------------|
G|-----7-----------5-----------------8--------6------5-----3--------------|
D|-----8---------6-----------------8----------6------6-----5--------------|
A|-------------6-----------------6----------------------------------------|
E|-----6-----4-----------------6---------------------4-----3--------------|

e|-----6---6---6---6---6---6----------------------------------------------|
B|-------6---6---4---4---4---4-------4--------5-------8-------------------|
G|-----7-------5-------3-------------5--------6-------8-------------------|
D|-----8-------6-------5-----------------6--------8-------10--------------|
A|-------------------------------------6--------8-------10----------------|
E|-----------------------------------4--------5-------8-------------------|

e|------------------------------------------------------------------------|
B|---------6-------4-------4-------8---------6-------4-------4---4--------|
G|-------7---7---5---5---3---3-----8-------7---7---5---5---3---3----------|
D|-----8-------6-------5-----------8-----8-------6-------5----------------|
A|------------------------------------------------------------------------|
E|------------------------------------------------------------------------|

e|------------------------------------------------------------------------|
B|-----8------------------------------------------------------------------|
G|-----8-------8-10-8--------8-----7--------------------------------------|
D|----10--10----------8-----10-----8--------------------------------------|
A|--------11------------10--11----11-10-----------------------------------|
E|------------------------------------------------------------------------|



| /  slide up
| \  slide down
| h  hammer-on
| p  pull-off
| ~  vibrato
| +  harmonic
| T  Thumb

===========================================================================





Comments


Popular Vanessa Williams tabs & chords
Colors Of The Wind 2 Chords
Colours Of The Wind Chords
Colours Of The Wind 1 Chords
Love Is Chords
Save The Best For Last Chords
Save The Best For Last 1 Chords
Colors Of The Wind Tabs
Constantly Tabs
Safe The Best For Last Tabs
Save The Best For Last Ukulele


Song lyrics



↑ Back to top | Tablatures and chords are parodies/interpretations of the original songs. You may use it for private study, scholarship, research or language learning purposes only
© 2014 AZChords.com Contact us | Privacy policy | DMCA | Add/correct tabs | Request tabs | Top 50 tabs