» » »

Say Ok Tabs (ver.2)

Artists:  A B C D E F G H I J K L M N O P Q R S T U V W X Y Z # 

Say Ok Tabs (ver.2)

Vanessa Hudgens
Rating:
5/5 (1 vote)

Hard to play? Try these video lessons and learn fast.
                (Intro)
Intro
e|-11----11----11------11-----9------9-----9-----9---------------------------------|
B|---12----12-----12-----12-----11-----11----11---11-------------------------------|
G|-----13----13------13----13------11----11----11---11-----------------------------|
D|---------------------------------------------------------------------------------|
A|---------------------------------------------------------------------------------|
E|---------------------------------------------------------------------------------|


e|-11----11----11------11-----9------9-----9-----9---------------------------------|
B|---12----12-----12-----12-----11-----11----11---11-------------------------------|
G|-----13----13------13----13------11----11----11---11-----------------------------|
D|---------------------------------------------------------------------------------|
A|---------------------------------------------------------------------------------|
E|---------------------------------------------------------------------------------|

e|-11----11----11------11-----9------9-----9-----9---------------------------------|
B|---12----12-----12-----12-----11-----11----11---11-------------------------------|
G|-----13----13------13----13------11----11----11---11-----------------------------|
D|---------------------------------------------------------------------------------|
A|---------------------------------------------------------------------------------|
E|---------------------------------------------------------------------------------|
            
Hard to play? Try these video lessons and learn fast. | Correct




comments powered by Disqus
↑ Back to top | Tablatures and chords are parodies/interpretations of the original songs. You may use it for private study, scholarship, research or language learning purposes only