» » »

Say Ok Tabs (ver.3)

Artists:  A B C D E F G H I J K L M N O P Q R S T U V W X Y Z # 

Say Ok Tabs (ver.3)

Vanessa Hudgens
Rating:
3/5 (2 votes)

Hard to play? Try these video lessons and learn fast.
                -------------------------------------------------------------------------------
                            SAY OK - Vanessa Anne Hudgens
-------------------------------------------------------------------------------

Tuning: Standard

This is pretty accurate, I should know :D

(Intro/Verse 1)
e|-11----11----11------11-----9------9-----9-----9---------------------------------|
B|---12----12-----12-----12-----11-----11----11---11-------------------------------|
G|-----13----13------13----13------11----11----11---11-----------------------------|
D|---------------------------------------------------------------------------------|
A|---------------------------------------------------------------------------------|
E|---------------------------------------------------------------------------------|


e|-11----11----11------11-----9------9-----9-----9---------------------------------|
B|---12----12-----12-----12-----11-----11----11---11-------------------------------|
G|-----13----13------13----13------11----11----11---11-----------------------------|
D|---------------------------------------------------------------------------------|
A|---------------------------------------------------------------------------------|
E|---------------------------------------------------------------------------------|

e|-11----11----11------11-----9------9-----9-----9---------------------------------|
B|---12----12-----12-----12-----11-----11----11---11-------------------------------|
G|-----13----13------13----13------11----11----11---11-----------------------------|
D|---------------------------------------------------------------------------------|
A|---------------------------------------------------------------------------------|
E|---------------------------------------------------------------------------------|

e|-12----12-----11----11----9-----9-----9----9-------------------------------|
B|---14----14-----12----12----11---11----11---11-----------------------------|
G|-----13----13-----13----13----11----11---11---11---------------------------|
D|---------------------------------------------------------------------------|
A|---------------------------------------------------------------------------|
E|---------------------------------------------------------------------------|

e|-12----12-----11----11----9-----9-----9----9-------------------------------|
B|---14----14-----12----12----11---11----11---11-----------------------------|
G|-----13----13-----13----13----11----11---11---11---------------------------|
D|---------------------------------------------------------------------------|
A|---------------------------------------------------------------------------|
E|---------------------------------------------------------------------------|

(Chorus, pretty much the same thing)
e|-11----11----11------11-----9------9-----9-----9---------------------------------|
B|---12----12-----12-----12-----11-----11----11---11-------------------------------|
G|-----13----13------13----13------11----11----11---11-----------------------------|
D|---------------------------------------------------------------------------------|
A|---------------------------------------------------------------------------------|
E|---------------------------------------------------------------------------------|


e|-11----11----11------11-----9------9-----9-----9---------------------------------|
B|---12----12-----12-----12-----11-----11----11---11-------------------------------|
G|-----13----13------13----13------11----11----11---11-----------------------------|
D|---------------------------------------------------------------------------------|
A|---------------------------------------------------------------------------------|
E|---------------------------------------------------------------------------------|

e|-12----12-----11----11----9-----9-----9----9-------------------------------|
B|---14----14-----12----12----11---11----11---11-----------------------------|
G|-----13----13-----13----13----11----11---11---11---------------------------|
D|---------------------------------------------------------------------------|
A|---------------------------------------------------------------------------|
E|---------------------------------------------------------------------------|


(Verse 2)
e|-11----11----11------11-----9------9-----9-----9---------------------------------|
B|---12----12-----12-----12-----11-----11----11---11-------------------------------|
G|-----13----13------13----13------11----11----11---11-----------------------------|
D|---------------------------------------------------------------------------------|
A|---------------------------------------------------------------------------------|
E|---------------------------------------------------------------------------------|


e|-11----11----11------11-----9------9-----9-----9---------------------------------|
B|---12----12-----12-----12-----11-----11----11---11-------------------------------|
G|-----13----13------13----13------11----11----11---11-----------------------------|
D|---------------------------------------------------------------------------------|
A|---------------------------------------------------------------------------------|
E|---------------------------------------------------------------------------------|

e|-12----12-----11----11----9-----9-----9----9-------------------------------|
B|---14----14-----12----12----11---11----11---11-----------------------------|
G|-----13----13-----13----13----11----11---11---11---------------------------|
D|---------------------------------------------------------------------------|
A|---------------------------------------------------------------------------|
E|---------------------------------------------------------------------------|

e|-12----12-----11----11----9-----9-----9----9-------------------------------|
B|---14----14-----12----12----11---11----11---11-----------------------------|
G|-----13----13-----13----13----11----11---11---11---------------------------|
D|---------------------------------------------------------------------------|
A|---------------------------------------------------------------------------|
E|---------------------------------------------------------------------------|


(Chorus)


(Bridge)
e|-11----11----11------11-----9------9-----9-----9---------------------------------|
B|---12----12-----12-----12-----11-----11----11---11-------------------------------|
G|-----13----13------13----13------11----11----11---11-----------------------------|
D|---------------------------------------------------------------------------------|
A|---------------------------------------------------------------------------------|
E|---------------------------------------------------------------------------------|


e|-11----11----11------11-----9------9-----9-----9---------------------------------|
B|---12----12-----12-----12-----11-----11----11---11-------------------------------|
G|-----13----13------13----13------11----11----11---11-----------------------------|
D|---------------------------------------------------------------------------------|
A|---------------------------------------------------------------------------------|
E|---------------------------------------------------------------------------------|

(Chorus)
e|-11----11----11------11-----9------9-----9-----9---------------------------------|
B|---12----12-----12-----12-----11-----11----11---11-------------------------------|
G|-----13----13------13----13------11----11----11---11-----------------------------|
D|---------------------------------------------------------------------------------|
A|---------------------------------------------------------------------------------|
E|---------------------------------------------------------------------------------|


e|-11----11----11------11-----9------9-----9-----9---------------------------------|
B|---12----12-----12-----12-----11-----11----11---11-------------------------------|
G|-----13----13------13----13------11----11----11---11-----------------------------|
D|---------------------------------------------------------------------------------|
A|---------------------------------------------------------------------------------|
E|---------------------------------------------------------------------------------|

e|-12----12-----11----11----9-----9-----9----9-------------------------------|
B|---14----14-----12----12----11---11----11---11-----------------------------|
G|-----13----13-----13----13----11----11---11---11---------------------------|
D|---------------------------------------------------------------------------|
A|---------------------------------------------------------------------------|
E|---------------------------------------------------------------------------|

e|-11----11----11------11-----9------9-----9-----9---------------------------------|
B|---12----12-----12-----12-----11-----11----11---11-------------------------------|
G|-----13----13------13----13------11----11----11---11-----------------------------|
D|---------------------------------------------------------------------------------|
A|---------------------------------------------------------------------------------|
E|---------------------------------------------------------------------------------|

e|-11----11----11------11-----9------9-----9-----9---------------------------------|
B|---12----12-----12-----12-----11-----11----11---11-------------------------------|
G|-----13----13------13----13------11----11----11---11-----------------------------|
D|---------------------------------------------------------------------------------|
A|---------------------------------------------------------------------------------|
E|---------------------------------------------------------------------------------|

Well thats it, its pretty easy.
            
Hard to play? Try these video lessons and learn fast. | Correct




comments powered by Disqus
↑ Back to top | Tablatures and chords are parodies/interpretations of the original songs. You may use it for private study, scholarship, research or language learning purposes only