» » »

Vampire Weekend, One (Blake's Got A New Face) Tabs (ver.2)

Artists:  A B C D E F G H I J K L M N O P Q R S T U V W X Y Z # 

One (Blake's Got A New Face) Tabs (ver.2)

Vampire Weekend Tabs
Rating:
0/5 (0 votes)
One (Blake's Got A New Face) lessons Tabs too difficult? Try these video lessons and learn fast
                Intro
   A               F#m             D               Bm              
e|-5-5-5-5-5-------2-2-2-2-2-------5-5-5-5-5-------7-7-7-7-7-------|
B|-5-5-5-5-5-------2-2-2-2-2-------7-7-7-7-7-------7-7-7-7-7-------|
G|-6-6-6-6-6-------2-2-2-2-2-------7-7-7-7-7-------7-7-7-7-7-------|
D|-----------------------------------------------------------------|
A|-----------------------------------------------------------------|
E|-----------------------------------------------------------------|



Verse Intro
   A                                                               
e|-----------------------------------------------------------------|
B|-----------------------------------------------------------------|
G|-----------------------------------------------------------------|
D|-----------------------------------------------------------------|
A|-0---0---0-------0---0---0-------0---0---0-------0---0---0-------|
E|-----------------------------------------------------------------|



Verse
   A         Bm    A         C#m   A         Bm    A         E7    
e|-----------7-7-7-----------9-9-9-----------7-7-7-----------4-4-4-|
B|-----------7-7-7-----------9-9-9-----------7-7-7-----------3-3-3-|
G|-----------7-7-7-----------9-9-9-----------7-7-7-----------4-4-4-|
D|-----------------------------------------------------------------|
A|-0---0---0-------0---0---0-------0---0---0-------0---0---0-------|
E|-----------------------------------------------------------------| x lots



Chorus
   D               Bm              E                               
e|-5-5-5-5-5-------7-7-7-7-7-------0-0-0-0-0-------0-0-0-0-0-------|
B|-7-7-7-7-7-------7-7-7-7-7-------0-0-0-0-0-------0-0-0-0-0-------|
G|-7-7-7-7-7-------7-7-7-7-7-------1-1-1-1-1-------1-1-1-1-1-------|
D|-----------------------------------------------------------------|
A|-----------------------------------------------------------------|
E|-----------------------------------------------------------------|

   A               F#m             D               Bm              
e|-5-5-5-5-5-------2-2-2-2-2-------5-5-5-5-5-------7-7-7-7-7-------|
B|-5-5-5-5-5-------2-2-2-2-2-------7-7-7-7-7-------7-7-7-7-7-------|
G|-6-6-6-6-6-------2-2-2-2-2-------7-7-7-7-7-------7-7-7-7-7-------|
D|-----------------------------------------------------------------|
A|-----------------------------------------------------------------|
E|-----------------------------------------------------------------|



Verse Intro After Chorus
   A                                                               
e|--------------------------------|--------------------------------|
B|--------------------------------|--------------------------------|
G|--------------------------------|--------------------------------|
D|--------------------------------|--------------------------------|
A|-0---0---0-------0---0---0------|-0---0---5-------7---7---0------|
E|--------------------------------|--------------------------------| x 2
            

comments powered by Disqus
↑ Back to top | Vampire Weekend Tabs for One (Blake's Got A New Face). Lyrics for acoustic guitar and electric guitar. Tablatures and chords are parodies/interpretations of the original songs. You may use it for private study, scholarship, research or language learning purposes only