» » »

Cape Cod Kwassa Kwassa Tabs (ver.4)

Artists:  A B C D E F G H I J K L M N O P Q R S T U V W X Y Z # 

Cape Cod Kwassa Kwassa Tabs (ver.4)

Vampire Weekend
Rating:
4/5 (3 votes)

Hard to play? Try these video lessons and learn fast.
                Other versions pretty close, but only minor details missing.
This sounds about right.

INTRO & VERSE:
e|--2-2--5-5--3-2-0h2p0------------------------|
B|--3----2----3--------3---0---2----3----------|
G|---------------------------0---2--2----------|
D|---------------------------------------------|
A|---------------------------------------------|
E|---------------------------------------------|
CHORUS:
e|----------------------|
B|--0---22--3-----------|
G|--0---22--2-----------|
D|----------------------|
A|----------------------|
E|----------------------|
BRIDGE:
e|--7-----7-----9-------9----------------------|
B|----8-----8-----10------10-------------------|
G|------9-----9------11------11----------------|
D|---------------------------------------------|
A|---------------------------------------------|
E|---------------------------------------------|
VERSE  x7
CHORUS x8
BRIDGE x1
VERSE  x1
REST
CHORUS x10

ENJOY!
            
Hard to play? Try these video lessons and learn fast. | Correct




comments powered by Disqus
↑ Back to top | Tablatures and chords are parodies/interpretations of the original songs. You may use it for private study, scholarship, research or language learning purposes only