» » »

Cape Cod Kwassa Kwassa Tabs (ver.3)

Artists:  A B C D E F G H I J K L M N O P Q R S T U V W X Y Z # 

Cape Cod Kwassa Kwassa Tabs (ver.3)

Vampire Weekend
Rating:
4/5 (32 votes)

Hard to play? Try these video lessons and learn fast.
                awesome band, Pretty sure this is right

Intro/Verse
e|-------------------------------------------|
B|--77--1010--87-----------------------------|
G|--77--7-7------9h11p9-7--------------------|
D|--------------------------9----11----12----|
A|---------------------------10----12--12----|
E|-------------------------------------------|x12

Chorus
e|---------------|
B|---------------|
G|---------------|
D|--9--1111--12--|
A|--10-1212--12--|
E|---------------|x8



Bridge
e|------------------------------------------------|
B|---------------------12-----12-----14-----14----|
G|-----------------------1211---1211---1412---1412|
D|--9~~~-11~~--12---------------------------------|
A|--10~~-12~~--12---------------------------------|
E|------------------------------------------------|x1

the rest of the song is: 
Verse  x7
Chorus x8
Bridge x1
Verse  x1
Rest
Chorus x10

End.

and it's not WRONG, its just a different way to play the CORRECT melody.
sue me.
            
Hard to play? Try these video lessons and learn fast. | Correct




comments powered by Disqus
↑ Back to top | Tablatures and chords are parodies/interpretations of the original songs. You may use it for private study, scholarship, research or language learning purposes only