» » »

Vamp, Tir'na Noir Tabs (ver.1)

Artists:  A B C D E F G H I J K L M N O P Q R S T U V W X Y Z # 

Tir'na Noir Tabs (ver.1)

Vamp Tabs
Rating:
0/5 (0 votes)
Hard to play? Try these video lessons and learn fast.
                VAMP - TIR NA NOIR
I forhold til capo i 2. band.

Intro:
|--------------|----------------|
|--------1-----|-------1-----1--|
|:-----0-----0-|-----0------0--:|
|:---0-----3---|---0-----0h3---:|
|--3-----------|-3--------------|
|--------------|----------------|

Vers:
|-------------|-------------|-----0-------|-------------|
|---------0h1-|---------0h1-|---------3---|-----1---1---|
|-----0-------|-----2-------|---2---------|-----0---0---|
|---2---2-----|---2---2-----|-0-----0---0-|-------3---3-|
|-3-----------|-0-----------|-------------|---3---------|
|-------------|-------------|-------------|-1-----------|

  -Det e svart novembar, havet knuse mot strand

|-------------|-------------|-----0-------|----------(3)|-------------|
|---------0h1-|---------0h1-|---------3---|-0-------1---|-3-------3---|
|-----0-------|-----2-------|---2---------|-0---0---2---|-4---4-----4-|
|---2---2-----|---2---2-----|-0-----0---0-|---0---0-----|---0---0-----|
|-3-----------|-0-----------|-------------|-------------|-------------|
|-------------|-------------|-------------|-3-----------|-3-----------|

  -Ein forliste drøm fra et sommargrønt land

|-------------|-------------|-----0-------|-------------|
|---------0h1-|---------0h1-|---------3---|-----1---3---|
|-----0-------|-----2-------|---2---------|-----0---2---|
|---2---2-----|---2---2-----|-0-----0---0-|-------3---3-|
|-3-----------|-0-----------|-------------|---3---------|
|-------------|-------------|-------------|-1-----------|

  -Men eg huske ennå vakre Mary McKear

|-------------|-----0----3---|-----3---------|-------------|
|-------0-----|-----3----0---|-----1-------1-|-1---------1-|
|-----5-----0-|---2---2----0-|-------0----0--|-----0---0---|
|---7-----7---|-0------------|---2-----0h3---|---2---------|
|-0-----------|--------------|-3-------------|-3-----3-----|
|-------------|----------3---|---------------|-------------|

  -longt vest i Tir n’a Noir

Ref:
|-----3---3---|-----1---1---|-1-------1---|-------------|-------------|
|-----1---1---|-----1---1---|-----1-------|-----0---1---|-3-------3---|
|---0---0---0-|---2---2---2-|---2---2---2-|-----0---2---|-4---4-----4-|
|-------------|-------------|-3-----------|---0---0---0-|---0---0-----|
|-3-----------|-0-----------|-------------|-------------|-------------|
|-------------|-------------|-------------|-3-----------|-3-----------|

  -Va du drøm? Va du te? Va du hud? Va du blod?
  -Eg kan hørra deg le. Eg kan huska eg lo.

|-------------|-------------|-----0-------|-------------|
|---------0h1-|---------0h1-|---------3---|-----1---3---|
|-----0-------|-----2-------|---2---------|-----0---2---|
|---2---2-----|---2---2-----|-0-----0---0-|-------3---3-|
|-3-----------|-0-----------|-------------|---3---------|
|-------------|-------------|-------------|-1-----------|

  -Bakom horisontar, så forvitra og glir

|-------------|-----0----3---|-----3---------|-------------|
|-------0-----|-----3----0---|-----1-------1-|-1---------1-|
|-----5-----0-|---2---2----0-|-------0----0--|-----0---0---|
|---7-----7---|-0------------|---2-----0h3---|---2---------|
|-0-----------|--------------|-3-------------|-3-----3-----|
|-------------|----------3---|---------------|-------------|

  -e du mi, mi Mary McKear



-------------------------------------------------------

Vers2:

Når min rustne kropp går i bakkane tungt
hørr’eg nåken hviska bakom vintrane ungt:

Kom tebage, venn, ifra kneipar og svir.
Kom igjen te Tir n’a Noir.
Kom te hud. Kom te sinn ifra alt så e grått.
Eg ska stryga ditt kinn, gjera blikket ditt blått.

For bak horisontar,
så forvitra og glir 
e eg di, 
di Mary McKear.


--------------------------------------------------------

Vers3:

Så når kvelden komme og eg stilt går ombord, 
og min livbåt blir låra i seks fot med jord, 
seil’ eg vest i havet te Mary McKear i 
det grønna Tir n’a Noir.

Te drøm og te kinn og ein himmel av trøst 
kor allting e sinn og eg hørre di røst:

Horisontar fins ikkje.
Alt du tar på forblir 
Eg e di , 
di Mary McKear. 
            

comments powered by Disqus
↑ Back to top | Vamp Tabs for Tir'na Noir. Lyrics for acoustic guitar and electric guitar. Tablatures and chords are parodies/interpretations of the original songs. You may use it for private study, scholarship, research or language learning purposes only