>
 >
Tir'na Noir 1

Tir'na Noir 1 Guitar Tabs

Vamp - Tir'na Noir 1 chords, tabs, tablatures, lyrics

Guitar lessons | Add/correct | Request | Top 50 tabs Artists:  A B C D E F G H I J K L M N O P Q R S T U V W X Y Z 0-9

Tir'na Noir 1 Guitar Tabs – Vamp

CD, Sheet music, Poster

Do you like Tir'na Noir 1? Share with your friends now
ChordsChords v2Chords v3TabsTabs v2
This is a guitar arrangement by me.
If you want to watch me playing guitar,
I will post videos of me playing all my guitar arrangements.

Songtitle: Tir Na Noir - Vamp
Capo: 2 fret

Chords: C, Am, F, G
Lyrics & Tabs:

Intro:

E|------------------------------------------------------------------|
B|--------1-------1-------1-------1-------1-------1-------1-------1-|
G|------0-------0-------0-------0-------0-------0-------0-------0---|
D|----0-----0h2-------0-----0h2-------0-----0h2-------0-----0h2-----|
A|--3---------------3---------------3---------------3---------------|
E|------------------------------------------------------------------|

1 Vers:

E|--------0-----5--3--0--------0--------------------------0-|
B|--1--3-----------------1--3-----3--1--------0--1----------|
G|-----------0--------------------------2--2-----------0----|
D|--------------------------------------3-----------2-------|
A|--------3--------3-----------0--------3--------3--------3-|
E|--------------------------------------1-------------------|

E|--------------0----1-0-----------------------------|
B|-3------1--3--1---------3--------------------------|
G|-----0--------2--2------0--------------------------|
D|---0--------------------0--------------------------|
A|--------------0------------------------------------|
E|-3----------------------3--------------------------|

E|--------0-----5--3--0--------0--------------------------0-|
B|--1--3-----------------1--3-----3--1--------0--1----------|
G|-----------0--------------------------2--2-----------0----|
D|--------------------------------------3-----------2-------|
A|--------3--------3-----------0--------3--------3--------3-|
E|--------------------------------------1-------------------|

E|---------------------------------------------------|
B|-3------1--0--1------1-------1--------1-------1----|
G|-----0-------------0-------0--------0-------0------|
D|---0-------------0-----0h2--------0-----0h2--------|
A|--------------3----------------3----------------3--|
E|-3-------------------------------------------------|

Chorus:

Va du drøm? Va du te?
Va du hud? Va du blod?
Eg kan hørra deg le.
Eg kan huska eg lo.

E|--0--1--3----0-3--5------5-5-5--3---0-----------0--1--3---|
B|--------1-------------------------------3-------------1---|
G|--------0--0--------0-------------0---0-0---0---------0--0|
D|----------------------------------------0-0---0-----------|
A|--------3---------------------------------------------3---|
E|------------------1---1--1---1----------3-----------------|

E|-0-3--5------5-5-5--3---0--------------------------|
B|----------------------------3----------------------|
G|--------0-------------0---0-0---0------------------|
D|----------------------------0-0---0----------------|
A|---------------------------------------------------|
E|------1---1--1---1----------3----------------------|

2 Vers:

Bakom horisontar,
Så forvitra og glir
E du mi,
Mi Mary McKear.

E|--------0-----5--3--0--------0--------------------------0-|
B|--1--3-----------------1--3-----3--1--------0--1----------|
G|-----------0--------------------------2--2-----------0----|
D|--------------------------------------3-----------2-------|
A|--------3--------3-----------0--------3--------3--------3-|
E|--------------------------------------1-------------------|

E|---------------------------------------------------|
B|-3------1--0--1------1-------1--------1-------1----|
G|-----0-------------0-------0--------0-------0------|
D|---0-------------0-----0h2--------0-----0h2--------|
A|--------------3----------------3----------------3--|
E|-3-------------------------------------------------|

3 Vers:

Når min rustne kropp går i bakkane tungt
Hørr’eg nåken hviska bakom vintrane ungt.
Kom tebage, venn, ifra kneipar og svir.
Kom igjen te Tir n’a Noir.

E|--------0-----5--3--0--------0--------------------------0-|
B|--1--3-----------------1--3-----3--1--------0--1----------|
G|-----------0--------------------------2--2-----------0----|
D|--------------------------------------3-----------2-------|
A|--------3--------3-----------0--------3--------3--------3-|
E|--------------------------------------1-------------------|

E|--------------0----1-0-----------------------------|
B|-3------1--3--1---------3--------------------------|
G|-----0--------2--2------0--------------------------|
D|---0--------------------0--------------------------|
A|--------------0------------------------------------|
E|-3----------------------3--------------------------|

E|--------0-----5--3--0--------0--------------------------0-|
B|--1--3-----------------1--3-----3--1--------0--1----------|
G|-----------0--------------------------2--2-----------0----|
D|--------------------------------------3-----------2-------|
A|--------3--------3-----------0--------3--------3--------3-|
E|--------------------------------------1-------------------|

E|---------------------------------------------------|
B|-3------1--0--1------1-------1--------1-------1----|
G|-----0-------------0-------0--------0-------0------|
D|---0-------------0-----0h2--------0-----0h2--------|
A|--------------3----------------3----------------3--|
E|-3-------------------------------------------------|

Chorus:

Kom te hud. Kom te sinn ifra alt så e grått.
Eg ska stryga ditt kinn, gjera blikket ditt blått.

E|--0--1--3----0-3--5------5-5-5--3---0-----------0--1--3---|
B|--------1-------------------------------3-------------1---|
G|--------0--0--------0-------------0---0-0---0---------0--0|
D|----------------------------------------0-0---0-----------|
A|--------3---------------------------------------------3---|
E|------------------1---1--1---1----------3-----------------|

E|-0-3--5------5-5-5--3---0--------------------------|
B|----------------------------3----------------------|
G|--------0-------------0---0-0---0------------------|
D|----------------------------0-0---0----------------|
A|---------------------------------------------------|
E|------1---1--1---1----------3----------------------|

4 Vers:

Så når kvelden komme og eg stilt går ombord,
Og min livbåt blir låra i seks fot med jord,
Seil’ eg vest i havet te Mary McKear i
Det grønna Tir n’a Noir.

E|--------0-----5--3--0--------0--------------------------0-|
B|--1--3-----------------1--3-----3--1--------0--1----------|
G|-----------0--------------------------2--2-----------0----|
D|--------------------------------------3-----------2-------|
A|--------3--------3-----------0--------3--------3--------3-|
E|--------------------------------------1-------------------|

E|--------------0----1-0-----------------------------|
B|-3------1--3--1---------3--------------------------|
G|-----0--------2--2------0--------------------------|
D|---0--------------------0--------------------------|
A|--------------0------------------------------------|
E|-3----------------------3--------------------------|

E|--------0-----5--3--0--------0--------------------------0-|
B|--1--3-----------------1--3-----3--1--------0--1----------|
G|-----------0--------------------------2--2-----------0----|
D|--------------------------------------3-----------2-------|
A|--------3--------3-----------0--------3--------3--------3-|
E|--------------------------------------1-------------------|

E|---------------------------------------------------|
B|-3------1--0--1------1-------1--------1-------1----|
G|-----0-------------0-------0--------0-------0------|
D|---0-------------0-----0h2--------0-----0h2--------|
A|--------------3----------------3----------------3--|
E|-3-------------------------------------------------|

Chorus:

Te drøm og te kinn og ein himmel av trøst
Kor allting e sinn og eg hørre di røst:

E|--0--1--3----0-3--5------5-5-5--3---0-----------0--1--3---|
B|--------1-------------------------------3-------------1---|
G|--------0--0--------0-------------0---0-0---0---------0--0|
D|----------------------------------------0-0---0-----------|
A|--------3---------------------------------------------3---|
E|------------------1---1--1---1----------3-----------------|

E|-0-3--5------5-5-5--3---0--------------------------|
B|----------------------------3----------------------|
G|--------0-------------0---0-0---0------------------|
D|----------------------------0-0---0----------------|
A|---------------------------------------------------|
E|------1---1--1---1----------3----------------------|

5 Vers (Littlebit different):

Horisontar fins ikkje.
Alt du tar på forblir
Eg e di ,
Di Mary McKear.

E|--------0-----1--3--0---------0---------------------------0-|
B|--1--3-----------------1----1-----3--1--------0--1----------|
G|-----------0--------------2-----2-------2--2-----------0----|
D|----------------------------------------3-----------2-------|
A|--------3--------------0------0---------3--------3--------3-|
E|----------------------------------------1-------------------|

E|---------------------------------------------------|
B|-3------1--0--1------1-------1--------1-------1----|
G|-----0-------------0-------0--------0-------0------|
D|---0-------------0-----0h2--------0-----0h2--------|
A|--------------3----------------3----------------3--|
E|-3-------------------------------------------------|

I spend 15 minutes making this arrangement so if you find some mistakes, please tell 
them to me, and i'll correct them!
Please rate my tab, because if you like them I will make a lot of good arrangements to you!





Comments


Popular Vamp tabs & chords
Liten Fuggel 1 Chords
Paa Bredden Chords
VåKen DrøM 2 Chords
Vise Til Varen Chords
Fuglane Vett Ukulele
Liten Fuggel Ukulele
Paa Bredden Ukulele
Tirna Noir Ukulele
Vise Til Varen Ukulele
Vise Til Vren Ukulele


Song lyrics



↑ Back to top | Tablatures and chords are parodies/interpretations of the original songs. You may use it for private study, scholarship, research or language learning purposes only
© 2014 AZChords.com Contact us | Privacy policy | DMCA | Add/correct tabs | Request tabs | Top 50 tabs