» » »

Valley Of Chrome, Art Of Letting Go Tabs (ver.1)

Artists:  A B C D E F G H I J K L M N O P Q R S T U V W X Y Z # 

Art Of Letting Go Tabs (ver.1)

Valley Of Chrome Tabs
Rating:
0/5 (0 votes)
Hard to play? Try these video lessons and learn fast.
                The Art of Letting Go

This is my first tab, the first part I got from my friend tapos kinapa
ko na lang ung iba, paki rate na lang po!

Tuning:
e
B
G
D
A
D(Drop Low E to D)

Here's how it goes...

Intro	       Pre-Verse(7x) and Chorus(4x)
|---x-x-x-----||-x--x-x-x--x--x-x-x-x-x-x-x-x--|
|---x-x-x-----||-x--x-x-x--x--x-x-x-x-x-x-x-x--|
|---x-x-x-----||-x--x-x-x--x--x-x-x-x-x-x-x-x--|
|--10-9-7-----||-7-10-0-9-10--0-0-3-3s5-5s7-7--|
|--10-9-7-----||-7-10-0-9-10--0-0-3-3s5-5s7-7--|
|--10-9-7-----||-7-10-0-9-10--0-0-3-3s5-5s7-7--|

Verse & refrain(palm mute)	Pre-Chorus
|--x----x-----|		|-x---x---x--------------------|
|--x----x-----|		|-x---x---x--------------------|
|--x----x-----|		|-x---x---x--------------------|
|--7----5-----|		|-3---5---7--------------------|
|--7----5-----|		|-3---5---7--------------------|
|--7----5-----|		|-3---5---7--------------------|


(Rhythm Guitar for the solo part is the same from the Intro
and Chorus so you just continually play it from the Chorus)

Bridge
|-----------------------------------------|
|-----------------------------------------|
|-----------------------------------------|
|-----------------------------------------|6x
|--2-2-4h5p4-0--2-2-4h5p4-----------------|
|-----------------------------------------|



Outro:
|-----------------------------------------|
|-----------------------------------------|
|----4-4-6h7p7—-2-4-4-6h7p7---------------|up to end
|-----------------------------------------|
|-----------------------------------------|
|-----------------------------------------|
            

comments powered by Disqus
↑ Back to top | Valley Of Chrome Tabs for Art Of Letting Go. Lyrics for acoustic guitar and electric guitar. Tablatures and chords are parodies/interpretations of the original songs. You may use it for private study, scholarship, research or language learning purposes only