» » »

Forever Young Tabs (ver.1)

Artists:  A B C D E F G H I J K L M N O P Q R S T U V W X Y Z # 

Forever Young Tabs (ver.1)

Valley Of Chrome
Rating:
3/5 (2 votes)

Tabs too difficult? Try these video lessons and learn fast.
                Forever young
valley of chrome

drop d tuning po mga tol.

intro: etong part na to paulit ulit...at pabilis ng pabilis din ng konti.
sinasabayan din to ng guitar 2.
guitar 1
E----------------------------------------------|
B----------------------------------------------|
G----------7--7-9-10-9-10-12-10-9-10-9-7-------|
D----------------------------------------------|
A----------------------------------------------|
D----------------------------------------------|

guitar 2.......tuloy tuloy lang dito ung guitar 1
yan,,,,,,paulit ulit lng.
E----------------------------------------------|
B----------------------------------------------|
G----------------------------------------------|
D---0~----0-3~-----3-5~------5--8~-------------|
A---0~----0-3~-----3-5~------5--8~-------------|
D---0~----0-3~-----3-5~------5--8~-------------|

verse: sabay na dito guitar 1 and 2
eto parehas lng nun sa intro..pero mas mabilis
at may palm mute....pakinggan nlng po maiigi ung kanta.
E-------------------------------------------------------|
B-------------------------------------------------------|
G-------------------------------------------------------|
D---0-xxxx-0-xx-0-xx-0-3-xxxx-3-xx--3-xx-5------5--8----|
A---0-xxxx-0-xx-0-xx-0-3-xxxx-3-xx--3-xx-5------5--8----|
D---0-xxxx-0-xx-0-xx-0-3-xxxx-3-xx--3-xx-5------5--8----|
 yan...mga tol. kayu na mag lagay ng palm mute...hehe..
mabilis un na may palm mute..ok?

eto naman....."I control the hands of time- much to the majority's dismay"
may lead dun,,,kaso dko marinig eh,,tuklasin nyo nlng mga tol..
E-------------------------------------|
B-------------------------------------|
G-------------------------------------|4 times to
D-----3-3---0-3--5------8-------------|
A-----3-3---0-3--5------8-------------|
D-----3-3---0-3--5------8-------------|

eto ung sa..."this means so much to me."
E--------------------------|
B--------------------------|
G--------------------------|
D-----8-8-8-8-8-8--10------|
A-----8-8-8-8-8-8--10------|
D-----8-8-8-8-8-8--10------|

eto ung.."young! young!.
E--------------------------|
B--------------------------|
G--------------------------|4 times din to.
D---0-0---------0-0---3-5--|
A---0-0---------0-0---3-5--|
D---0-0---------0-0---3-5--|
       young! young!
tapos balik sa intro..........yun! ok? pakiintindi nlng po..
and pakinggan maiigi ung kanta para ma-familiarize nyo.

ending:
E--------------|
B--------------|
G--------------|
D---3-3---0~---|
A---3-3---0~---|
D---3-3---0~---|
yan! tapos na!...some parts are missing,,heheh,..kau na humanap..tama yan.
pakiintidi nlng po at paki rate!
salamat ng marami!
piz! astig voc! kamusta kayo jan! mga barkada ko sa villarica! at feu,,at pasig!
mga kabanda ko! jovan,botchok,jonas,dominic,jr lake, archie, jimbo, hazel,
at c ingrid ko!
peace!
            
Tabs too difficult? Try these video lessons and learn fast.




comments powered by Disqus
↑ Back to top | Tablatures and chords are parodies/interpretations of the original songs. You may use it for private study, scholarship, research or language learning purposes only