» » »

Forever Young Tabs (ver.3)

Artists:  A B C D E F G H I J K L M N O P Q R S T U V W X Y Z # 

Forever Young Tabs (ver.3)

Valley Of Chrome
Rating:
3/5 (4 votes)

Hard to play? Try these video lessons and learn fast.
                Forever Young Tab by Valley of Chrome
Tuning: (standard)
(Intro1 LEAD DISTORTED)

(Guitar 1)
E----------------------------------------------------|
B----5-5-7-8--8-7-10—8-7-8-7-5-----------------------|
G----------------------------------------------------|
D----------------------------------------------------|
A----------------------------------------------------|
E----------------------------------------------------|
(INTRO 2-RHYTHM-DISTORTED)
(Guitar 2)—(GUITAR 1 CONTINOUS INTRO 1)
I-------------------------------------|I
I-------------------------------------|I
G-------------------------------------|I
D---2-------5-------7-------10--------|I
A---2-------5-------7-------10--------|I
E---0-------3-------5--------8--------|I

(INTRO 3-) GUITAR 1 CONTINOUS INTRO 1)

I--------------------------------------------------------------------------|I
I--------------------------------------------------------------------------|I
G--------------------------------------------------------------------------|I
D---222222222-------555555555-----777777777---10-10-10-10-10-10-10-10-10---|I
A---222222222-------555555555-----755555555---10-10-10-10-10-10-10-10-10---|I
E---000000000-------333333333-----555555555---8--8---8--8--8--8--8--8--8---|I

(Verse just do intro 3)
(GUITAR 1 AND 2)

PRE CHORUS
( / -SLIDE)
G-----------------------55555555555------|I
D--2—2---5/7-7----------xxxXXXXXXXX------|I
A--2—2---5/7-7----------33333333333------|I
E--0—0---3/5-5---------------------------|I

CHORUS
G------------13----------------13--------------|I
D---2-2------X--------2-2------X-------7-10----|I
A---2-2------11-------2-2------11------7-10----|I
E---0-0---------------0-0--------------5—8—----|I

SA BRIDGE PART-INTRO2 AT YUNG INTRO1 SABAYAN LANG

THANK YOU SA 2LONG NI GANJAMAN NA KABANDA KO PARA MABUO YUNG TAB NA 2!!THANX DIN SA REST 
THE BAND,,thnx din sa mahal ko sa supporta nya sa amin.. please rate na lng po!!for 
and suggestions pki send na lang sa email ko..
            
Hard to play? Try these video lessons and learn fast. | Correct




comments powered by Disqus
↑ Back to top | Tablatures and chords are parodies/interpretations of the original songs. You may use it for private study, scholarship, research or language learning purposes only