>
 >
Extinction Agenda

Extinction Agenda Guitar Tabs

Valley Of Chrome - Extinction Agenda chords, tabs, tablatures, lyrics

Guitar lessons | Add/correct | Request | Top 50 tabs Artists:  A B C D E F G H I J K L M N O P Q R S T U V W X Y Z 0-9

Extinction Agenda Guitar Tabs – Valley Of Chrome

CD, Sheet music, Poster

Do you like Extinction Agenda? Share with your friends now
Tabs
-------------------------------------------------------------------------------
-------------------------------------------------------------------------------

Tuning: Drop C# (Eb,Bb,F#,C#,G#,C#)
Guitar 1: Lead Guitar
Guitar 2: Rhythm Guitar
Guitar 3: Harmony

Intro Pt.1
Guitar 1
eb|---------------------------------------------------------------------------|
Bb|---------------------------------------------------------------------------|
F#|---7-9-10-9-7-5---7-5-3---5-3-2~-----7-9-10-9-7-14-12-14-10-12-10-9~-------|
C#|---------------------------------------------------------------------------|
G#|---------------------------------------------------------------------------|
C#|---------------------------------------------------------------------------|
Guitar 2 (Together w/ Guitar 1)
|---------------------------------------------------------------------------|
|---------------------------------------------------------------------------|
|---7---3---5---7---------------------7---10--5---5-------------------------|
|---7---3---5---7---------------------7---10--5---5-------------------------|
|---5---1---3---5---------------------5---8---3---4-------------------------|
|---------------------------------------------------------------------------|

then,
Guitar 1
|----------------------------------------------------------------------------------------|
|----------------------------------------------------------------------------------------|
|---7-9-10-9-7-5---7-5-3---5-3-2~----------14p12-----12p10----10p9----9p7--6-7-7/9-7~----|
|----------------------------------------------------------------------------------------|
|----------------------------------------------------------------------------------------|
|-------------------------------------x-x---------x--------x-------x---------------------|
Guitar 2 (w/ Guitar 1)
|---------------------------------------------------------------------------|
|---------------------------------------------------------------------------|
|---7---3---5---7---------------------7-------10----------------------------|
|---7---3---5---7---------------------7---8---10---10-----------------------|
|---5---1---3---7---------------------5---8---8----10-----4-5-5/7-5~--------|
|-----------------------------------------8--------10-----------------------|

Intro Pt.2
Guitar 1 (Repeat 4x)
|---------------------------------------------------------------------------|
|---------------------------------------------------------------------------|
|---6/7~---7-9-9/10-10-10~---12-10-9-10\5-5~---5-5/10-6-6~------------------|
|---------------------------------------------------------------------------|
|---------------------------------------------------------------------------|
|---------------------------------------------------------------------------|
Guitar 2 (w/ Guitar 1)(Repeat 4x)
|------------------------------------------------------------------------------|
|------------------------------------------------------------------------------|
|---7-7-7-7---x-x-x---3-3-3-3---x-x-x---5-5-5-5---x-x-x---5-5-5-5-----2p0------|
|---7-7-7-7---x-x-x---3-3-3-3---x-x-x---5-5-5-5---x-x-x---5-5-5-5----------0---|
|---5-5-5-5---x-x-x---1-1-1-1---x-x-x---3-3-3-3---x-x-x---4-4-4-4--------------|
|------------------------------------------------------------------------------|

Play this harmonized riff on the third to fourth time
Guitar 3 (w/ Guitars 1&2) 
|---------------------------------------------------------------------------|
|---------------------------------------------------------------------------|
|---------------------------------------------------------------------------|
|---------------------------------------------------------------------------|
|---5/8~---8-10-10/12-12-12~---13-12-10-12-7-7~--12-10-10~------------------|
|---------------------------------------------------------------------------|

Verse Riff
Guitar 1 (Repeat 10x)
|---------------------------------------------------------------------------|
|---------------------------------------------------------------------------|
|---------------------------------------------------------------------------|
|----------------7-6--------------------------------------------------------|
|---------------------8-7--------------7-7-4-5------------------------------|
|---x-x--x-x-x-------------x-x--x-x-x---------------------------------------|

Guitar 3 (Play over Guitar 1 on the 3rd-10th time)
|---------------------------------------------------------------------------|
|---------------------------------------------------------------------------|
|---------------7-6---------------------------------------------------------|
|--------------------8-7--------------7-7-----------------------------------|
|------------------------------------------7-8------------------------------|
|---x-x--x-x-x------------x-x--x-x-x----------------------------------------|

Pre-Chorus
Guitar 1
|---------------------------------------------------------------------------|
|---------------------------------------------------------------------------|
|---3-3--x--5-5---7----------------------3-3--x--5-5--x--10-10-10--10-------|
|---3-3--x--5-5---7----------------------3-3--x--5-5--x--10-10-10--10-------|
|---1-1--x--3-3---5---7h8p7-5-7-5-3------1-1--x--3-3--x--8--8--8---7--------|
|---------------------------------------------------------------------------|

Guitar 3 (w/ Guitar 1)
|---------------------------------------------------------------------------|
|---------------------------------------------------------------------------|
|---7-7--x--7/9--10--------------------7-7--x--7/9--------------------------|
|---x-x--x--x/x--x---5h7p5-3-5-3-2-----x-x--x--x/x--------------------------|
|---5-5--x--5/7--8---------------------5-5--x--5/7---11-11-x-6--------------|
|---------------------------------------------------------------------------|

then,
Guitar 1
|---------------------------------------------------------------------------|
|---------------------------------------------------------------------------|
|---3-3--x--5-5--7----------------------------------------------------------|
|---3-3--x--5-5--7-------------------------3------5---2~--------------------|
|---1-1--x--3-3--5---7h8p7-5-7-5-3-----0-1----0-3-----0~--------------------|
|---------------------------------------------------------------------------|

Guitar 3 (w/ Guitar 1)
|---------------------------------------------------------------------------|
|------------------------------------------------2~-------------------------|
|---7-7--x--7/9--10------------------------3--5--2~-------------------------|
|---x-x--x--x/x--x----5h7p5-3-5-3-2--------3--5--2~-------------------------|
|---5-5--x--5/7--8-------------------------1--3-----------------------------|
|-------------------------------------x-x-----------------------------------|

Repeat Intro Pt.1 for Chorus
end with
|------------0~-------------------------------------------------------------|
|------------3~-------------------------------------------------------------|
|------------2~-------------------------------------------------------------|
|---0~-------0~-------------------------------------------------------------|
|---0~----------------------------------------------------------------------|
|---0~----------------------------------------------------------------------|

Repeat Verse Riff a couple of times
Repeat Pre-Chorus
Repeat Intro Pt.2 for Chorus

Breakdown
Guitar 1 (Muted)
|---------------------------------------------------------------------------|
|---------------------------------------------------------------------------|
|----------------------------------------------------------------5-5--------|
|-------------------------------------------3--------------------5-5--------|
|----------------------5-----------------------------------------3-4--------|
|---0-0--0-0-0-0--0-0----0-0--0-0-0-0--0-0----0-0--0-0-0-0--0-0-------------|

Guitar 3 (Muted)
|---------------------------------------------------------------------------|
|---------------------------------------------------------------------------|
|------------------------------------------------------------------10-10----|
|--------------------------------------------3---------------------10-10----|
|----------------------5-------------------------------------------8--7-----|
|---0-0--0-0-0-0--0-0-----0-0--0-0-0-0--0-0-----0-0--0-0-0-0--0-0-----------|

Repeat Pre-Chorus
Repeat 1st line of Intro Pt.1 twice
End with entire Intro Pt.1

Enjoy!

| /  slide up
| \  slide down
| h  hammer-on
| p  pull-off
| ~  vibrato
| +  harmonic
| x  Mute note
===============================================================================





Comments


Popular Valley Of Chrome tabs & chords
Art Of Letting Go Chords
Art Of Letting Go 2 Tabs
Conquering Hades Tabs
Extinction Agenda Intro Tabs
Forever Young 1 Tabs
Kiss Of Medusa Tabs
Love And Devotion 1 Tabs
Art Of Letting Go Ukulele
Love And Devotion Ukulele
Scourging At The Pillar Ukulele


Song lyrics



↑ Back to top | Tablatures and chords are parodies/interpretations of the original songs. You may use it for private study, scholarship, research or language learning purposes only
© 2014 AZChords.com Contact us | Privacy policy | DMCA | Add/correct tabs | Request tabs | Top 50 tabs