» » »

Valley Of Chrome, Conquering Hades Tabs (ver.2)

Artists:  A B C D E F G H I J K L M N O P Q R S T U V W X Y Z # 

Conquering Hades Tabs (ver.2)

Valley Of Chrome Tabs
 Rating:
4/5 (4 votes)
Conquering Hades lessons Tabs too difficult? Try these video lessons and learn fast
                Gtr.Legends:
~ - LET IT RING
x - DEAD STRING
. - PALM MUTING
b – BEND


Gtr.Tuning:Standard(drop c#)

Gtr.1
D#|-------------------------------------------------|
A#|-------------------------------------------------|
f#|-------------------------------------------------|
c#|-0~-xx-1~---4x then-0-2-3-5-3-0-2-3-5-3-{4xtimes)| 
g#|-0~-xx-1~----------------------------------------|
C#|-0~-xx-1~----------------------------------------|

Gtr.2

D#|------------|
A#|------------|
f#|------------|
c#|-0~-xx-1~---| 8times
g#|-0~-xx-1~---|
C#|-0~-xx-1~---|


Verse:
D#|--------------------------    -------------------|
A#|--------------------------    -------------------|
f#|--------------------------    -------------------|
c#|-----------5-3------------    -------------------|
g#|-555-6-3-45------5-6-5-2---    -555-6-3-5-1-3-0--|
c#|--------------------------    -------------------|

d#|--------------------------    ---------------------------|
a#|--------------------------    -----------6-5-------------|
f#|--------------------------    ---------------6-5---------|
c#|--------------------------    ----------------------8-7b-|
g#|-----------5-3------------    -555-6-3-5-----------------|
c#|-555-6-3-5------5-6-5-3---    ---------------------------|

Chorus:
Gtr.1
D#|----------------------|
A#|----------------------|
F#|-7~--5~--7~--10~--5~--|
C#|-7~--5~--7~--10~--5~--|
G#|-5~--3~--5~--8~---3~--|
C#|----------------------|

Gtr.2
D#|----------------------------------------------------------------------|
A#|-3-5-6-8-6-5-6-------5-6-5---------5-6-6s8-6-5-6-8s10-8-6-8-8s10-8-6-8|
F#|---------------5---7------7-6-7~--7-----------------------------------|
C#|----------------------------------------------------------------------|
G#|----------------------------------------------------------------------|
C#|----------------------------------------------------------------------|
Gtr.1
D#|-----5-6-5-5-------------------------5-6-5-5-8-6-5--6-5------|
A#|-6-8------8-5---6-8-8-10-8-6-5-6--6-8-----8--------8----8-6~|
F#|------------------------------------------------|
C#|------------------------------------------------|
G#|------------------------------------------------|
C#|------------------------------------------------|
Gtr.2
D#|-5-7-8-10-8-7-8-3---5-7-8-5-4-5~-5-7-8-10-8-7-8-12-10-8-7-8-7-5-4-5~|
A#|--------------------------------------------------------------------|
F#|--------------------------------------------------------------------|
C#|--------------------------------------------------------------------|
G#|--------------------------------------------------------------------|
C#|--------------------------------------------------------------------|

Repeat Verse:

Repeat Chorus:

Bridge prt.1: both gtr.1 and gtr.2
D#|-----------------   --------|
A#|-----------------   --------|
F#|-----------------   --------|
C#|-3-3333--5-5555--   -8-7~---|
G#|-1-3333--3-3333--   -6-5~---|
C#|-----------------   --------|
     ....    ....

Bridge prt.2:
Gtr.1
D#|---------------------------------------------|
A#|-15-------15-------15-------15-------15/17---|
F#|----14-14----14-14----14-14----14-14---------|
C#|---------------------------------------------|
G#|---------------------------------------------|
C#|---------------------------------------------|

D#|------------------------------------------------------------|
A#|-15-------15-------15-------15-------12h13-12-10-12-10-8-10-|
F#|----14-14----14-14----14-14----14-14------------------------|
C#|------------------------------------------------------------|
G#|------------------------------------------------------------|
C#|------------------------------------------------------------|
   .  .  .  .  .  .  .  .  .  .   . . 

D#---------------------------------------------|
A#|-15-------15-------15-------15-------15/17---|
F#|----14-14----14-14----14-14----14-14---------|
C#|---------------------------------------------|
G#|---------------------------------------------|
C#|---------------------------------------------|
   .  .  .  .  .  .  .  .  .  .  .  .  

D#|-------------------------------------12h14-13-12-13---|
A#|-15-------15-------15-------15------------------------|
F#|----14-14----14-14----14-14----14-14------------------|
C#|------------------------------------------------------|
G#|------------------------------------------------------|
C#|------------------------------------------------------|
   .  .  .  .  .  .  .  .  .  .  .  .

Gtr.2
D#|-------------|
A#|-------------|
F#|--4------6~--|
C#|--4--4---6~--|
G#|--2--4---4~--|
C#|-----2-------|


Bridge prt.3:
Gtr.1
D#|--------------------------------------|
A#|--------------------------------------|
F#|--------------------------------------| 2times poh
C#|-2h3—2h3p2-----5h7-5h7p5--------------|
G#|----5-----5-3-0---8------8-7-4--------|
C#|--------------------------------------|
Gtr.2
D#|-------------------------------|
A#|-------------------------------|
F#|-------------------------------|
C#|-77777-55555-1010101010—55555--|
G#|-55555-33333-8-8-8-8-8--33333--|
C#|-------------------------------|
    ....  ....  ....  ...then,,

Both gtr.1 and gtr.2
D#|--------------------------------------|
A#|-5h6-5h6p5-----8h10—8h10p8------------|
F#|----7-----7-5------10-----10-9-6------|2x times din po
C#|-------------7------------------------|
G#|--------------------------------------|
C#|--------------------------------------|
Repeat Verse:
Repeat chorus:
Outro:

D#|--------------------------    -------------------|
A#|--------------------------    -------------------|
f#|--------------------------    -------------------|
c#|-----------5-3------------    -------------------|
g#|-555-6-3-45------5-6-5-2---    -555-6-3-5-1-3-0--|
c#|--------------------------    -------------------|

d#|--------------------------    ---------------------------|
a#|--------------------------    -----------6-5-------------|
f#|--------------------------    ---------------6-5---------|
c#|--------------------------    ----------------------8-7b-|
g#|-----------5-3------------    -555-6-3-5-----------------|
c#|-555-6-3-5------5-6-5-3---    ---------------------------|

D#|-------------------------------------|
A#|-------------------------------------|
F#|-------------------------------------|
C#|------------xxx----------------------|
G#|-555-6-3-5--xxx--555-6-3-5-1-3-0-----|
C#|------------xxx----------------------|

D#|--------------------------------------------|
A#|--------------------------6-5---------------|
F#|------------------------------6-5-----------|
C#|------------xxx--------------------8-7b-----|
G#|-555-6-3-5--xxx-555-6-3-5-------------------|
C#|------------xxx-----------------------------|

D#|--------------|
A#|--------------|
F#|---------7~---|
C#|---------7~---|
G#|--55-6-3-5~--|
C#|--------------|

I dedicate this song to regina,, haha juk lng. Tsaka kay kyra genie,rhobee, and antony.
            
Submit corrections

comments powered by Disqus
↑ Back to top | Valley Of Chrome Tabs for Conquering Hades. Lyrics for acoustic guitar and electric guitar. Tablatures and chords are parodies/interpretations of the original songs. You may use it for private study, scholarship, research or language learning purposes only