» » »

Valley Of Chrome, Cast No Shadow Tabs (ver.1)

Artists:  A B C D E F G H I J K L M N O P Q R S T U V W X Y Z # 

Cast No Shadow Tabs (ver.1)

Valley Of Chrome Tabs
 Rating:
4/5 (4 votes)
Cast No Shadow lessons Tabs too difficult? Try these video lessons and learn fast
                (Intro)

tunning: drop c# (c#,Ab,Db,Gb,Bb,eb)

Gtr.Legends:
x - DEAD STRING
/ - SLIDE
b - BEND
~ - LET IT RING 
. - PALM MUTING
p - PULL-OFF
h - HAMMER-ON


Intro:GTR 1
eb|--------------------------------------|
Bb|--------------------------------------|
Gb|--------------------------------------|
Db|--------------------8-8-8-------------|  
Ab|-7-7-7--------------8-8-8-------------|
C#|-5-5-5-(repeat 4x)--8-8-8-(repeat 4x)-|
    . .                . . 

Intro:GTR 2
eb|--------------------------------|
Bb|--------------------------------|
Gb|--------------------------------|
Db|--------------------------------|  
Ab|-5-7-8-8\10-8-7-1-3-5-5\8-7-3---|(repeat 2x)
C#|--------------------------------|

eb|--------------------------------|
Bb|--------------------------------|
Gb|--------------------------------|
Db|-3-5-7-7\8-7-5-2-3-5-5\7-5-2----|  
Ab|--------------------------------|
C#|--------------------------------|

eb|-------------------------------------|
Bb|-------------------------------------|
Gb|-------------------------------------|
Db|-3-5-7-7\8-7-5-2-3-5-5\7-5-2-3-5-5\7-|  
Ab|-------------------------------------|
C#|-------------------------------------|

GTR 1

eb|--------------------------------------|
Bb|--------------------------------------|
Gb|--------------------------------------|
Db|--------------------8-8-8-------------|  
Ab|-7-7-7--------------8-8-8-------------|
C#|-5-5-5-(repeat 4x)--8-8-8-(repeat 4x)-|

GTR 2

eb|---------------------------------------------|
Bb|-6-5-6-5-6-5-6\10-10-8~-------------5-5------|
Gb|------------------------7-5-7-5-7-5-----6~---|
Db|---------------------------------------------|  (repeat 4x)
Ab|---------------------------------------------|
C#|---------------------------------------------|

this is my first tab but i am sure that this is 97% accurate..
thanks..
            
Submit corrections

comments powered by Disqus
↑ Back to top | Valley Of Chrome Tabs for Cast No Shadow. Lyrics for acoustic guitar and electric guitar. Tablatures and chords are parodies/interpretations of the original songs. You may use it for private study, scholarship, research or language learning purposes only