» » »

Valens Ritchie, La Bamba Tabs (ver.4)

Artists:  A B C D E F G H I J K L M N O P Q R S T U V W X Y Z # 

La Bamba Tabs (ver.4)

Valens Ritchie Tabs
Rating:
0/5 (0 votes)
La Bamba lessons Tabs too difficult? Try these video lessons and learn fast
                (Solo)
La Bamba by Ritchie Valens

Since no one tabbed this solo, I decided to tackle it myself. I am absolutely
positive that the notes and rhythm are correct.
I tabbed two versions of this solo. I believe the first version is easier to play
Palm mute the whole song, as to avoid
excessive ringing of open strings. The tempo is 4/4 at around 120 bpm. So those
of you who use Sony Soundforge, I
recommend using time stretch for this section. Good luck and enjoy.

End Solo

-0-----0-1-----1-|3--------3-1-0---|0-----0-1-----1-|3-------3-1-0--------|
-----1-------1---|-------3-------3-|----1-------1---|----0-3-------3------|
---0-------2-----|--0--------------|--0-------2-----|--0------------------|
-----------------|-----------------|----------------|---------------------|
-----------------|-----------------|----------------|---------------------|
-----------------|-----------------|----------------|---------------------|

-0-----0-1-----1-|3-------3-1-0---|0-----0-1-----1-|3---------0-----------|
-----1-------1---|----0-3-------3-|----1-------1---|------1---------------|
---0-------2-----|--0-------------|--0-------2-----|----0-----------------|
-----------------|----------------|----------------|----------------------|
-----------------|----------------|----------------|----------------------|
-----------------|----------------|----------------|----------------------|

---3---3-5--5---|--3---3-3---1--|0-0---0---------|--------1-----1-|0--------------|
----------------|---------------|--------1-------|----0-3-----3---|----1----------|
-0--------------|0--------------|------------2---|0---------------|------0-2---2--|
----------------|---------------|----------------|----------------|---------------|
----------------|---------------|----------------|----------------|---------------|
----------------|---------------|----------------|----------------|---------------|

-----------------|--0-------------|----------------|--0---------------|
---3-0-3-0-3-0-3-|1---3-1-0-3-1---|----0-3-----0-3-|1---3-1-0-3-1-----|
-0---------------|--------------2-|0-------2-------|--------------2-0-|
-----------------|----------------|----------------|------------------|
-----------------|----------------|----------------|------------------|
-----------------|----------------|----------------|------------------|

-1-1-1---1---1-|--0-0-0---0---0-|--1-1-1---1---1-|--0-0-0---0---0-|----------0---|
-------0-------|--------1-------|--------0-------|--------1-------|------1-------|
-----------2---|0-----------2---|0-----------2---|0-----------2---|0---0---------|
---------------|----------------|----------------|----------------|--------------|
---------------|----------------|----------------|----------------|--------------|
---------------|----------------|----------------|----------------|--------------|

---3---5-5---5---|3------3-3---5-7-|8-8---8-8/10---10---|10-10---7-7--10-10-|
-----------------|-----------------|--------------------|-------------------|
-0---------------|-----------------|--------------------|-------------------|
-----------------|-----------------|--------------------|-------------------|
-----------------|-----------------|--------------------|-------------------|
-----------------|-----------------|--------------------|-------------------|

-8-8-10-10---8-10---|7-7-10-10-7-7-101010|10---8888---101010|10---7777---101010|
--------------------|--------------------|------------------|------------------|
--------------------|--------------------|------------------|------------------|
--------------------|--------------------|------------------|------------------|
--------------------|--------------------|------------------|------------------|
--------------------|--------------------|------------------|------------------|

10---8888---101010|10---7777---101010|8-8---8-7---5---|3-3---3-3---1---|
------------------|------------------|----------------|----------------|
------------------|------------------|----------------|----------------|
------------------|------------------|----------------|----------------|
------------------|------------------|----------------|----------------|
------------------|------------------|----------------|----------------|

-0-0---0---------|--1-----1-----1-|--0-----0-----0-|--1-----1-----1---|----|
---------1-------|------0---------|------1---------|------0-----------|----|
-------------2---|0-----------2---|0-----------2---|0-----------2-----|0---|
-----------------|----------------|----------------|------------------|----|
-----------------|----------------|----------------|------------------|----|
-----------------|----------------|----------------|------------------|----|
			(fade out)

Alternate Version

-5--5-6--6-8---865--5--5-6--6-8---865-5--5-6--68---865--5--56--68----5-|
---5----5-----7---7---5----5----47---7--5----5---47---7---5---5----5---|
--5----7----5--------5----7----5-------5----7---5--------5---7----5----|

--8-810-10--8-88-6-55-5--------6--65-----------------5-----------------|
-----------------------5-----47--7---5------7474747-5-75475---47--475--|
-5---------5-------------7-5----------57-7-5---------------75---7------|


-5-------666-6-6--555-5-5--666-6-6--555-5-5---5--8-1010-10-8-88--------|
--75475-----4--------5--------4--------5----5--------------------------|
-------75-----7-5------7-5------7-5------7-5----5----------------------|


---788-88/10-10-1010-77--1010881010--810--77101077-10101010-8888-10101010-7777---|
-10------------------------------------------------------------------------------|


-10101010-8888-10101010-7777---1010108-8--87---------------------------------------------------|
---------------------------------------------10-88-88-6-55-5-----6---6---6-5--5---5--6--6--6---|
------------------------------------------------------------5-------4--------5---------4-------|
--------------------------------------------------------------7-5-------7-5------7--5-----7--5-|


Thanks for using this tab!
            
Submit corrections

comments powered by Disqus
↑ Back to top | Valens Ritchie Tabs for La Bamba. Lyrics for acoustic guitar and electric guitar. Tablatures and chords are parodies/interpretations of the original songs. You may use it for private study, scholarship, research or language learning purposes only