» » »

Valens Ritchie, La Bamba Tabs (ver.1)

Artists:  A B C D E F G H I J K L M N O P Q R S T U V W X Y Z # 

La Bamba Tabs (ver.1)

Valens Ritchie Tabs
Rating:
0/5 (0 votes)
La Bamba lessons Tabs too difficult? Try these video lessons and learn fast
                -----------/----------------------------------------------/
-----------/-*-------------1---0------------------------*-/--
-----------/------0--------2---0--------------------------/-
-----------/------2--0-3------------------0--3-3-2-0-2----/----
------0--2-/-*--3-----------------------2---------------*-/----
----3------/-------------------------3--------------------/--
             Repeat second partas needed, i tried to make the timing
right, but its pretty easy.  I assure you that this is the right way
to play it, the other ones i saw are confusing, so i figured it out 
myself, just trust me. 

Chords Used: 

C,F,G7

C:>>           F: < > <             G7:< >
------0-----------0--------------1-----------------------      
------1-----------1--------------0-------------------------
------0-----------2--------------0--------------------------
------2-----------4--------------0--------------------------
------3-----------3--------------2--------------------------
------x-----------0--------------3--------------------------
There it is, trust me, this is right, just play it
ill try to tab out the strum if you cant get it from the song

 = down stroke
< = up stroke
hottublifegrd16, or aquaman184, if im not on one, try the other, 
thanks, later guys, enjoy the song, its a great!!
            

comments powered by Disqus
↑ Back to top | Valens Ritchie Tabs for La Bamba. Lyrics for acoustic guitar and electric guitar. Tablatures and chords are parodies/interpretations of the original songs. You may use it for private study, scholarship, research or language learning purposes only