» » »

Valens Ritchie, Sleepwalk Tabs (ver.1)

Artists:  A B C D E F G H I J K L M N O P Q R S T U V W X Y Z # 

Sleepwalk Tabs (ver.1)

Valens Ritchie Tabs
Rating:
0/5 (0 votes)
Sleepwalk lessons Tabs too difficult? Try these video lessons and learn fast
                Performed by 'Valens Ritchie'
Sudmitted by Moises Sotelo

This song is really from Santo & Johnny
Adapted for solo guitar without slide.

E----------------------------------------------------------|
B----------------------------------------------------------|
G---6-6-6-6-6----6-6-6-6-6--6-6--6-6-8---------------------|
D---6-6-6-6-6----8-8-8-8-6--8-8--8-8-10--------------------|
A---8-8-8-8-8----8-8-8-8-8--9-9--9-9-11-(bass line)--------|
E-9------------6-------------------------4--6--8--9--------|

E----------------------------------------------------------|
B-9/11--/18----\13-----------------------------------------|
G---------------------6-6--6-6--10-------------------------|
D---------------------8-8--8-8--10-------------------------|
A---------------------9-9--9-9--11-------------------------|
E---------------------9-9--9-9--13-------------------------|

E-9\----4----2-4-5\-4--2-9\----4----2-4-5\-4--2-2/4--------|
B----------------------------------------------------------|
G----------------------------------------------------------|
D----------------------------------------------------------|
A----------------------------------------------------------|
E----------------------------------------------------------|

E--4-------------------------------------------------------|
B-6-6------------------------------------------6-----------|
G----6------6-6--6-6--10-10--10-10-6--6-6--6-6-6-----------|
D-------8---8-8--8-8--10-10--10-10-6--8-8--8-8-6-----------|
A-----------9-9--9-9--11-11--11-11-8--9-9--9-9-8-----------|
E-----------9-9--9-9--13-13--13-13-9--9-9--9-9-9-----------|

E-------------13-13--11-9------11/13-11--------------------|
B----9/11-11---------------10-----------9--9/11--------9---|
G-------------------------------------------------9/10-----|
D-11-------------------------------------------------------|
A----------------------------------------------------------|
E----------------------------------------------------------|

E----------11/13-11----9-----11/13-11-9--------------------|
B----9/11------------11--10--------------------------------|
G----------------------------------------------------------|
D-11-------------------------------------------------------|
A----------------------------------------------------------|
E----------------------------------------------------------|

E----------------------------------------------------------|
B-8--8---8--8-/11-11--11-11-8------------------------------|
G-10-10--10-10/11-11--11-11-10-----------------------------|
D-9--9---9--9-/10-10--10-10-9------------------------------|
A-10-10--10-10/11-11--11-11-10-----------------------------|
E----------------------------------------------------------|

(end)
E----------------------------------------------------------|
B----------------------------------------------------------|
G-6-6--6-6--10-10---9---8----------------------------------|
D-8-8--8-8--10-10--10--10----------------------------------|
A-9-9--9-9--11-11--11--11----------------------------------|
E-9-9--9-9--13-13--12--11----------------------------------|

E---------------------------------------6------------------|
B-9/11---/18\------------13-----6--12---6------------------|
G-------------------------------6--12---6------------------|
D-------------------------------6--11---6------------------|
A-------------------------------8--12---8------------------|
E-------------------------------9--12---9------------------|
            

comments powered by Disqus
↑ Back to top | Valens Ritchie Tabs for Sleepwalk. Lyrics for acoustic guitar and electric guitar. Tablatures and chords are parodies/interpretations of the original songs. You may use it for private study, scholarship, research or language learning purposes only