>
 >
Bad Horsie (Solo)

Bad Horsie (Solo) Guitar Tabs

Vai Steve - Bad Horsie (Solo) chords, tabs, tablatures, lyrics

Guitar lessons | Add/correct | Request | Top 50 tabs Artists:  A B C D E F G H I J K L M N O P Q R S T U V W X Y Z 0-9

Bad Horsie (Solo) Guitar Tabs – Vai Steve

CD, Sheet music, Poster

Do you like Bad Horsie (Solo)? Share with your friends now
Tabs
Well, here it is...The big, Bad Horsie Solo.  I've seen a lot of
requests for this song and I decided that I might as well tab it,
since summer's here and there's really nothing else to do. So,
good luck with this solo...You're gonna need it.

Legend:
-------
x mute          b bend
r release       h hammer on
p pull off      ~ vibrato
/ slide up      \ slide down
T tap           P.H. pinch harmonic
! harmonic

Tuning: CBCFAD

W/Wah Pedal 																																												          
                       Hold Bend       Hold Bend
Again                              
|--12b(13)---12~--12-------12----------12--|---(12~)----12--------
|--12b(13)---12~--12b(13)-(13)--12p10--12b(13)-(13~)---r12--12p10-
|------------------------------------------|----------------------
|------------------------------------------|----------------------
|------------------------------------------|----------------------
|------------------------------------------|----------------------
                                                                              
        W/bar                         P.H
         -1/2  -2 1/2   -2 1/2           -3 1/2
 cont.  ---------------------------------------|
        ---------------------------------------|
 from   -12-----0\-------10-----------10b(12)--|
 last   ---------------------------------------|
        ---------------------12--10------------|
 meas.  -----------------------------0---------|


												  Hold bend yet
again			                                                                                                                     
|--------15b(16)b(17)--15--13--15b(16)r15p13----------------|
|--0------------------------------------------15--15b(18~)--|
|--0--------------------------------------------------------|
|--0--0-----------------------------------------------------|
|-----0-----------------------------------------------------|
|-----------------------------------------------------------|


																																																														P.H_ _ _
_|
|------------------------10----------------------------------------------------|
|---(18)p13-----15-13\10-10-----------------------------------------------/13--|
|------------14-------------12b(13)r12p10h12p10\5------------------------------|
|--------------------------------------------------7p5---------3b(4)-----------|
|------------------------------------------------------6\5--3---------5--5-----|
|------------------------------------------------------------------------------|



|--10h14p10---------------10-------10---------------------------------------
|-----------13p10-13b(15)----13p10-----10--------------------------10h13p10-
|----------------------------------------12b(13)r12p10----10-12-13----------
|------------------------------------------------------12-------------------
|---------------------------------------------------------------------------
|---------------------------------------------------------------------------


cont.   ----------------------------------------|
        ------12b(13)r12p10--------------10/13--|
last    --------------------------12------------|
        ----------------------------------------|
meas.   ----------------------------------------|



|--10h14p10----------10h13p10----10----------------------
|-----------13p10h13----------13----13-13p10h13----10----
|-----------------------------------------------13----13-
|--------------------------------------------------------
|--------------------------------------------------------
|--------------------------------------------------------


 cont. from last measure
---------------------------------15-20p15----------------20b(22~)------|
---------------15h18p15-15h18-18----------18-18p15---------------------|
10h13p10-13/17-------------------------------------19p17---------------|

    w/bar
     +1                                                              
P.H.
|---------17----20-------17---------------------------17------------------10-----------------|
|------------18----17\15----17b(18)r17p15----------------12b(13)r12p10----10--15b(17~)-------|
|-----------------------------------------17-16b(17)-------------------12---------------12\--|
|----(0)-------------------------------------------------------------------------------------|
|--------------------------------------------------------------------------------------------|
|--------------------------------------------------------------------------------------------|                                                                              
   w/bar
     P.H         P.H   P.H   P.H   P.H
      -1        -1  -1    -1    -1   
|-------------------------------------------------------------|
|--8--8--8--8--8--8--8--8--8--8--8--8b(11~)---8p6-------------|
|--------------------------------------------------7p5--7~~\--|
|-------------------------------------------------------------|
|-------------------------------------------------------------|
|-------------------------------------------------------------|


|--10h13h15p13h15p13h15p13h15p13h15p13h15p13h15p13h15p13h15p13h15p13h15p13h15p13h15p13h15p13
|-------------------------------------------------------------------------------------------
|-------------------------------------------------------------------------------------------
|-------------------------------------------------------------------------------------------
|-------------------------------------------------------------------------------------------
|-------------------------------------------------------------------------------------------


-h15p13h15p13h15p13\10h13--15p13--15p13p10--15p13--15p13p10--15p13p10\9h12--15p12--15p12p9---


-15p12p9---------------h12-15p12p9------------9h12-17p12p9----------------h9h12-17p12p9-----
---------15p12p9-------------------15p10p9h10--------------h12-17p12p9h10---------------h12-
-----------------14p11----------------------------------------------------------------------


--------------12/14---------------------------------------h12--17p12p10-----------------|
-17p12p10p9h1012/13p12p10----------------------17p12p10h13-------------h12--17p12p10\8--|
-------------------------h13p11--17p11p9h11h13------------------------------------------|


|--h8h11--17p11p8---------h8h11-17p11p8--------------------------19p10p8--------------19p9p8-
|-----------------17p9p8h9-------------h11-17p8-18p9-18p9p8--------------19p10p8-------------
|-----------------------------------------------------------19p9-----------------19p9--------
|--------------------------------------------------------------------------------------------
|--------------------------------------------------------------------------------------------
|--------------------------------------------------------------------------------------------


--------------19p9p7--------------------------------------10-p5h7p5-17p7p5---------------
--19p9p8-------------19p8p7/8h12-15p12-15p12p10-19p10\7h8h10-------------|h7-17p7p5------
---------18p9------------------------------------------------------------|----------17p7-


-------------17p7p5--------------------------------------------------17p7p5---------------
-17p7p5-------------17p7p5-15p5h7-17p7p5-----------------17p7p5-------------17p7p5--------
--------17p7-----------------------------17p7h9-17p7p6----------17p7---------------17p7p5-
------------------------------------------------------h7----------------------------------
                                  fdbk.
                       w/flanger  w/bar /\/\/\/\/\/\
--------------------|--0~---------0-------------------0----------|
--------------------|--1~---------1-------------------1---1------|
--------------------|--0~---------0-----------------------0------|
-17p7p5-------------|--3~---------3-----------------------3------|
--------17p7p5\3p0--|--3~---------3-----------------------3---0--|
--------------------|--3~-----3-------------------------------0--|





Comments


Popular Vai Steve tabs & chords
Audience Is Listining Tabs
Blood And Glory Tabs
Genocide Tabs
Genocide 2 Tabs
Kill The Guy With The Ball Tabs
Liberty 1 Tabs
Sailing Ships Tabs
Sex And Religion Tabs
Sisters Tabs
Warm Regards Tabs


Song lyrics



↑ Back to top | Tablatures and chords are parodies/interpretations of the original songs. You may use it for private study, scholarship, research or language learning purposes only
© 2014 AZChords.com Contact us | Privacy policy | DMCA | Add/correct tabs | Request tabs | Top 50 tabs