>
 >
Bad Horsie

Bad Horsie Guitar Tabs

Vai Steve - Bad Horsie chords, tabs, tablatures, lyrics

Guitar lessons | Add/correct | Request | Top 50 tabs Artists:  A B C D E F G H I J K L M N O P Q R S T U V W X Y Z 0-9

Bad Horsie Guitar Tabs – Vai Steve

CD, Sheet music, Poster

Do you like Bad Horsie? Share with your friends now
TabsTabs v2

The foollow are the standard
symbols used in creating tablature:

h = Hammer On 
p = Pull Of
b = Bend String Up
r  = Release Bend
/ = Slide Up
\ = Slide Down
v = Vibarto
* = Trill (ex. 8*10)
t = Right Handed Tap (ex. t10)
x = Muted Note or Rake
^ = Pitched Harmonic (ex. 12^)
pm = Palm Mute
 = dive up

tunning: i just play in d tunning (d,a,d,g,b,e) it sound ok when i play it

this is half of the song about up to 1:41 sec.........
like most tabs i have tabbed out the intro dive 


E|-(7)>>-|
B|-(7)>>-|
G|-(7)>>-|
D|--------0-0-x-x-0-0-x-x-0-0-x-x-0--------|
A|--------0-0-x-x-0-0-x-x-0-0-x-x-0--------|
D|--------0-0-x-x-0-0-x-x-0-0-x-x-0--------|


-------------------------|-----22-----22-------------------------------|
-------------------------|-3/22----22----22-20-20-20-20----------------|
-------------------------|---------------------------------------------|
-0-0-x-x-0-0-x-0-0-x-x-0-|------------------------------20\1-----------|
-0-0-x-x-0-0-x-0-0-x-x-0-|------------------------------20\1-----------|
-0-0-x-x-0-0-x-0-0-x-x-0-|------------------------------20\1-----------|
                                               

|------------------------------------------------------|
|------------------------------------------------------|
|------------------------------------------------------|
|-7\1-0-0-x-x-0-0--0-0-x-x-0--0-0-x-x-0-0--0-0-x-x-1\5-|
|-7\1-0-0-x-x-0-0--0-0-x-x-0--0-0-x-x-0-0--0-0-x-x-1\5-|
|-7\1-0-0-x-x-0-0--0-0-x-x-0--0-0-x-x-0-0--0-0-x-x-1\5-|
                                              

-----------|---------------|-----------|---------------|----------------------
-----------|---------------|-----------|---------------|----------------------
-----------|---------------|-----------|---------------|----------------------
-5-6-5-0-3-|-0-2-3-0-2-3---|-6-5-0-3-0-|-7-9--7-10v----|----------------------
-5/6-5-0-3-|-0-2-3-0-2-3---|-6\5-0-3-0-|-7\9--7\10v----|----------------------
-5/6-5-0-3-|-0-2-3-0-2-3---|-6\5-0-3-0-|-7-9--7\10v----|----------------------
             PM.........                                                      

-----------|---------------|-----------|---------------|----------------------
-----------|---------------|-----------|-10\12--10\12v-|----------------------
-----------|---------------|-----------|--9\11---9\13v-|----------------------
-5/6-5-0-3-|-0-2-3-0-2-3---|-6/5-0-3-0-|---------------|----------------------
-5/6-5-0-3-|-0-2-3-0-2-3---|-6/5-0-3-0-|---------------|----------------------
-5-6-5-0-3-|-0-2-3-0-2-3---|-6/5-0-3-0-|---------------|----------------------
             PM.........                                                      

-0-0-x-x-0-0--0-0-x-x-0-0--0-0-x-x-0-0-(3)-----------------------------------|
-0-0-x-x-0-0--0-0-x-x-0-0--0-0-x-x-0-0-(3)-----------------------------------|
-0-0-x-x-0-0--0-0-x-x-0-0--0-0-x-x-0-0-(3)-----------------------------------|
 This riff above is played twice between each solo fill.                      

-10--10------------------|----------------------------|-----------------------
---------10--------------|--------10------------------|-----------------------
-------------10----------|------------12------10v-----|-----------------------
-----------------12v-----|-10h12----------12----------|-----------------------
-------------------------|----------------------------|-----------------------
-------------------------|----------------------------|-----------------------
    use a wah pedal people
 on the 7th harmonic play around with your whammy bar till you get it to sound like a horse
----------------------------------------------|-----------------------
-----------------------------------------(7)--|-----------------------
----------------------------------------------|-----------------------
-5---5b--5--3-5--3-------3--------------------|-----------------------
-----------------------5--3---5--5v-----------|-----------------------
----------------------------------------------|-----------------------
              also use a wah here two 

--------------------------|---------------------------|-----------------------
-13b--13b--10-------------|-12br----------------------|-----------------------
---------------10---------|-----------------10v-------|-----------------------
-------------------12v----|-----------12--------------|-----------------------
--------------------------|---------------------------|-----------------------
--------------------------|---------------------------|-----------------------
 Wah Wah                                                                      

--------------------------|---------------------------|-----------------------
--------------------------|-13b-----------------------|-----------------------
--------------------------|---------------------------|-----------------------
--------------10----------|---------------------------|-----------------------
-6^/8^--10-8-----8-9-10-8-|---------------------------|-----------------------
--------------------------|---------------------------|-----------------------
 This riff above is all harmonics.                                            

---------------------------10-13-|--------------|-------------------17-20---|-
---------------------10-13-------|--------------|-------------18-20---------|-
---------------10-12-------------|---------3-5--|-------17-19---------------|-
---------10-12-------------------|-----3-5------|-17-19---------------------|-
---10-12-------------------------|-3-5----------|---------------------------|-
-0-------------------------------|--------------|---------------------------|-
 
that is all i got FOR NOW!!!!!!!!!!!!!!!!

and spell it the way you see it





Comments


Popular Vai Steve tabs & chords
Sex And Religion Chords
Brother 1 Tabs
Crossroad Tabs
Crossroads Paganini Tabs
Final Guitar Tabs
Here And Now Tabs
I Would Love To Tabs
Sisters Tabs
Sisters 1 Tabs
Windows To The Soul Tabs


Song lyrics



↑ Back to top | Tablatures and chords are parodies/interpretations of the original songs. You may use it for private study, scholarship, research or language learning purposes only
© 2014 AZChords.com Contact us | Privacy policy | DMCA | Add/correct tabs | Request tabs | Top 50 tabs