» » »

Vader, Carnal Tabs (ver.2)

Artists:  A B C D E F G H I J K L M N O P Q R S T U V W X Y Z # 

Carnal Tabs (ver.2)

Vader Tabs
 Rating:
4/5 (4 votes)
Carnal lessons Tabs too difficult? Try these video lessons and learn fast
                Band: Vader

*** ORIGINALLY BY "CARNAL" ***


e---------------------------------------------|
B---------------------------------------------|
G---------------------------------------------|
D----------------5-2-----------------5-2------|
A--4---8-5---4---3-0---4--8-5----4---3-0--6---|
E--2---6-3---2---------2--6-3----2--------4---|

e---------------------------------------------|
B---------------------------------------------|
G---------------------------------------------|
D----------------5-2-----------------5-2------|
A--4---8-5---4---3-0---4---8-5----4--3-0--6---|
E--2---6-3---2---------2---6-3----2-------4---|

 Fig.1   I gitara:

e------------------------------------------|
B------------------------------------------|
G------------------------------------------|
D------------------------------------------|
A------------------------------------------|
E--2222223^--2222223^--2222223^--2222223^--|

 Fig.2 Obie gitary:
e-----------------------------------------------|
B-----------------------------------------------|
G-----------------------------------------------|
D-----------------------------------------------|
A---------------------------------------5-5-3-2-|
E--2222223^--2222223^--2222223^--222222-3-3-1-0-|

 Fig.3:

 I tasted the fever of your existense
 Seems like cold grain to my mouth
 I stand aside I stay away
 Transmutting my quicksilver blood

 Fig.4:
e---------------------------------|----------------------------------|
B---------------------------------|----------------------------------|
G---------------------------------|----------------------------------|
D---------------------------------|----------------------------------|
A--------55555-00-111111----------|--------555555-00-111111----------|
E--222222---------------333333-00-|--222222----------------333333-00-|

 Fig.5
e---------------------------------|----------------------------------|
B---------------------------------|----------------------------------|
G---------------------------------|----------------------------------|
D---------------------------------|----------------------------------|
A--------55555555-111111----------|--------5555555555-111111---------|
E--222222---------------333333333-|--222222-----------------33333333-|
   KIA!That I may see                Inspid are the describing words
   ZOS!That I may touch              The self needs no vulgar praise
e---------------------------------|----------------------------------|
B---------------------------------|----------------------------------|
G---------------------------------|----------------------------------|
D---------------------------------|----------------------------------|
A--------55555555-111111----------|--------5555555555-111111---------|
E--222222---------------333333333-|--222222-----------------33333333-|
 This worship has no supplications  Things naked, pure of honest lust
 My rite is to live and do          The throbbing vortex feeds on it all

 Repeat Fig.1-Fig.2


 Fig.6 I gitara:
e--19--------------------18---------------|
B-------------17--------------------19-20-|
G-----------------------------------------|
D-----------------------------------------|
A-----------------------------------------|
E-----------------------------------------|
   Sleep is the best of possible prayers
   The winged eyes are blessed to see
   Downtrodden deception of every pain
   Transpierced hymens my lust adores

 Repeat Fig.3
 Fig.7
e---------------------------------|----------------------------------|
B---------------------------------|----------------------------------|
G---------------------------------|----------------------------------|
D---------------------------------|----------------------------------|
A--------55555555-111111----------|--------5555555555-111111---------|
E--222222---------------333333333-|--222222-----------------33333333-|
 Many images yet one raw flesh      An ideal point where time is space
 Animal steps I love to tread       Memory giant of this journey must heal

e---------------------------------|----------------------------------|
B---------------------------------|----------------------------------|
G---------------------------------|----------------------------------|
D---------------------------------|----------------------------------|
A--------55555555-111111----------|--------5555555555-111111-------6-|
E--222222---------------333333333-|--222222-----------------333333-4-|
 Lady of Mourning and her monsters  Joyful and priapic my baby soul
 Lay down the scythes for here I    A new born one 10million years old
 come
            
Submit corrections

comments powered by Disqus
↑ Back to top | Vader Tabs for Carnal. Lyrics for acoustic guitar and electric guitar. Tablatures and chords are parodies/interpretations of the original songs. You may use it for private study, scholarship, research or language learning purposes only