» » »

Carnal Bass tabs (ver.1)

Artists:  A B C D E F G H I J K L M N O P Q R S T U V W X Y Z # 

Carnal Bass tabs (ver.1)

Vader
Rating:
0/5 (0 votes)

Hard to play? Try these video lessons and learn fast.
                
Band:Vader

[easy]

Tune down

F||-------------------|--------------------|-------------------|
C||-------------------|--------------------|-------------------|
G||-------------------|--1-----------------|-------------------|
D||--2----------------|-----3--------------|--2----------------|



--------------------|---------------------|------------------|
--------------------|---------------------|------------------|
--3--0--------------|---------------1-----|------------------|
--------------------|--2---------------3--|------------------|



-------------------|--------------------|-------------------|
-------------------|--------------------|-------------------|
-------------------|--3--0--------------|-------------------|
--2----------------|--------------------|--2----------------|



--------------------|-------------------|--------------------|
--------------------|-------------------|--------------------|
--1-----------------|-------------------|--3--0--------------|
-----3--------------|--2----------------|--------------------|



---------------------|------------------|-------------------|
---------------------|------------------|-------------------|
---------------1-----|------------------|-------------------|
--2---------------3--|------------------|--2----------------|



--------------------|----|----|----|----|-------------------------------|
--------------------|----|----|----|----|-------------------------------|
--3--0--------------|----|----|----|----|-------------------------------|
--------------------|----|----|----|----|--2-2-2-2-2-2-2-2-2-2-2-2-3----|



-------------------------------|-------------------------------|
-------------------------------|-------------------------------|
-------------------------------|-------------------------------|
--2-2-2-2-2-2-2-2-2-2-2-2-3----|--2-2-2-2-2-2-2-2-2-2-2-2-3----|



-------------------------------|------|------|------|------|
-------------------------------|------|------|------|------|
-------------------------------|------|------|------|------|
--2-2-2-2-2-2-2-2-2-2-2-2-3----|------|------|------|------|



----------------------------------|----------------------------------|
----------------------------------|----------------------------------|
----------5-5-5-0-1-1-1-1---------|----------5-5-5-0-1-1-1-1---------|
--2-2-2-2-----------------3-3-3-0-|--2-2-2-2-----------------3-3-3-0-|



----------------------------------|----------------------------------|
----------------------------------|----------------------------------|
----------5-5-5-0-1-1-1-1---------|----------5-5-5-0-1-1-1-1---------|
--2-2-2-2-----------------3-3-3-0-|--2-2-2-2-----------------3-3-3-0-|



----------------------------------|----------------------------------|----|----|
----------------------------------|----------------------------------|----|----|
----------5-5-5-0-1-1-1-1---------|----------5-5-5-0-1-1-1-1---------|----|----|
--2-2-2-2-----------------3-3-3-0-|--2-2-2-2-----------------3-3-3-0-|----|----|



----|----|-------------------------------|-------------------------------|
----|----|-------------------------------|-------------------------------|
----|----|-------------------------------|-------------------------------|
----|----|--2-2-2-2-2-2-2-2-2-2-2-2-3----|--2-2-2-2-2-2-2-2-2-2-2-2-3----|



-------------------------------|-------------------------------|------|------|
-------------------------------|-------------------------------|------|------|
-------------------------------|-------------------------------|------|------|
--2-2-2-2-2-2-2-2-2-2-2-2-3----|--2-2-2-2-2-2-2-2-2-2-2-2-3----|------|------|



------|------|----------------------------------|
------|------|----------------------------------|
------|------|----------5-5-5-0-1-1-1-1---------|
------|------|--2-2-2-2-----------------3-3-3-0-|



----------------------------------|----------------------------------|
----------------------------------|----------------------------------|
----------5-5-5-0-1-1-1-1---------|----------5-5-5-0-1-1-1-1---------|
--2-2-2-2-----------------3-3-3-0-|--2-2-2-2-----------------3-3-3-0-|



----------------------------------|----------------------------------|
----------------------------------|----------------------------------|
----------5-5-5-0-1-1-1-1---------|----------5-5-5-0-1-1-1-1---------|
--2-2-2-2-----------------3-3-3-0-|--2-2-2-2-----------------3-3-3-0-|



----------------------------------|---|---||
----------------------------------|---|---||
----------5-5-5-0-1-1-1-1---------|---|---||
--2-2-2-2-----------------3-3-3-0-|---|---||
            
Hard to play? Try these video lessons and learn fast. | Correct




comments powered by Disqus
↑ Back to top | Tablatures and chords are parodies/interpretations of the original songs. You may use it for private study, scholarship, research or language learning purposes only