» » »

Useless Id, My Therapy Tabs (ver.1)

Artists:  A B C D E F G H I J K L M N O P Q R S T U V W X Y Z # 

My Therapy Tabs (ver.1)

Useless Id Tabs
 Rating:
4/5 (4 votes)
My Therapy lessons Tabs too difficult? Try these video lessons and learn fast
1
                
(No vacation from the world)


Intro

e|-----------|-----------|-----------|-----------|
B|-----------|-----------|-----------|-----------|
D|-----------|-----------|-----------|-----------|
G|----7-6-77-|----7-6-77-|----7-6-77-|----7-6-7--|  
A|-----------|-55--------|-----------|-55--------|
E|-55--------|-----------|-55--------|-----------|

 A           D           A           D
e|-----------|-----------|-----------|-----------| |
B|-----------|-----------|-----------|-----------| |
D|-----------|-----------|-----------|-----------| |
G|----7-6-77-|----7-6-77-|----7-6-77-|----7-6-77-| |
A|-----------|-55--------|-----------|-55--------| |
E|-55--------|-----------|-55--------|-----------| |
						   | X 2
 F#m	     C#m	 D           Dm            |
e|-----------|-----------|-----------|-5---------| |
B|-----------|-----------|-----------|-6---------| |
D|-----------|-----------|-----------|-7---------| |
G|-44-7-6-77-|----7-6-77-|----7-6-77-|-7---------| |
A|-----------|-44--------|-55--------|-x---------| |
E|-----------|-----------|-----------|-x---------| |


A                      D
Let's take a trip down memory lane
A                   D		
And pass by all the nights
(E)        F#m    C#m
Where I'll find myself
        D    Dm
In your arms again
A                      D
There's no inspiration here let's go
  A			D
I think we'd better get out
(E)       F#m        C#m
But we're stuck deep in
              D       Dm
The depths of yesterday


Chorus
        A
Did you know ?

It's been too long
        (E) F#m
This movie never ends
  D                  E        
I need you more than anything now
A
So much has changed
           (E)F#m
But we will always be
  D                 E
A part of something no one can see


 A           D           A           D
e|-----------|-----------|-----------|-----------| 
B|-----------|-----------|-----------|-----------| 
D|-----------|-----------|-----------|-----------| 
G|----7-6-77-|----7-6-77-|----7-6-77-|----7-6-7--| 
A|-----------|-55--------|-----------|-55--------| 
E|-55--------|-----------|-55--------|-----------| 


I call from England just to ear you say

Leave a message after the beep

It was more than that

In your sad voice sound

The one tape that I left you with

Gave a tear to your eye

And made me sick with words

I've been keeping in so long


Chorus

I'm sorry again

It's been...


Bridge
 
e|-------------|---------------------|-------------------|---------------| 
B|-------------|---------------------|-------------------|---------------| 
D|-7-7-7-7-7-7-|-------6-6-6-6-6-6-6-|-------------------|-4-4-4-4-4-4-4-| 
G|-------------|---------------------|-4-4-6-6-7-7-------|---------------| 
A|-------------|-7-7-7---------------|-------------7-7-7-|---------------| 
E|-------------|---------------------|-------------------|---------------| 

 D	       E                     F#m                 C#m
e|-------------|---------------------|-------------------|---------------| 
B|-------------|---------------------|-------------------|---------------| 
D|-7-7-7-7-7-7-|-------6-6-6-6-6-6-6-|-------------------|-4-4-4-4-4-4-4-| X 3
G|-------------|---------------------|-4-4-6-6-7-7-------|---------------| 
A|-------------|-7-7-7---------------|-------------7-7-7-|---------------| 
E|-------------|---------------------|-------------------|---------------| 

 D	       E                     F#m                 
e|-------------|---------------------|-----------------| 
B|-------------|---------------------|-----------------| 
D|-7-7-7-7-7-7-|-------6-6-6-6-6-6-6-|-----------------| 
G|-------------|---------------------|-4-4-6-6-7-7-----| 
A|-------------|-7-7-7---------------|-------------7-7-| 
E|-------------|---------------------|-----------------| 


D    E		   F#m C#m
Take back what you promised
D	  E	  F#                  (E)
It's been raining since you left me
D     E   Fm    F#m
Don't you worry at all
D
I'll be back before you know it
E
Knocking on your door
F#m      D } X4
My therapy

F#m
            
Submit corrections

comments powered by Disqus
↑ Back to top | Useless Id Tabs for My Therapy. Lyrics for acoustic guitar and electric guitar. 1 Tablatures and chords are parodies/interpretations of the original songs. You may use it for private study, scholarship, research or language learning purposes only