» » »

My Therapy Bass tabs (ver.1)

Artists:  A B C D E F G H I J K L M N O P Q R S T U V W X Y Z # 

My Therapy Bass tabs (ver.1)

Useless Id
Rating:
5/5 (1 vote)

Hard to play? Try these video lessons and learn fast.
                ++++++++++++++++++++++++++
| Useless ID- My Therapy |
++++++++++++++++++++++++++

Tuning: EADG

Intro
1.
G|-------------------------------------------------------------------------|
D|-------------------------------------------------------------------------|
A|-00000000-55555555-00000000-55555555----------44444444-55555555-55555555-|
E|-------------------------------------22222222----------------------------|

2.
G|-------------------------------------------------------------------------|
D|-------------------------------------------------------------------------|
A|-00000000-55555555-00000000-55555555----------44444444-55555555-5~-------|
E|-------------------------------------22222222----------------------------|

Verse
"Lets take a trip down memory lane..."
3.
G|-------------------------------------------------------------------------|
D|-------------------------------------------------------------------------|
A|-000x-----555x-----000x-----555x--------------44444444-55555555-55555555-|--x2
E|---------------------------------00--22222222----------------------------|

Chorus
"Did you know its been so long..."
4.
G|-------------------------------------------------------------------------|
D|-------------------------------------------------------------------------|
A|-00000000-00000000-00000000-0000-----------------------55555555----------|--x2
E|--------------------------------0000-22222222-22222222----------00000000-|

Outro
5.
G|-----------------------------|
D|-----------------------------|
A|-00x----55x----00x----55x----|
E|-----------------------------|

Verse
"I called you from England..."
6.
G|-------------------------------------------------------------------------|
D|-------------------------------------------------------------------------|
A|-0~-------5~-------0~-------5x----------------44444444-55555555-55555555-|
E|---------------------------------00--22222222----------------------------|

7.
G|-------------------------------------------------------------------------|
D|-------------------------------------------------------------------------|
A|-000x-----555x-----000x-----555x--------------44444444-55555555-xxx------|
E|---------------------------------00--22222222----------------------------|

Chorus
"Im sorry again, Its been so long..."
8.
G|-------------------------------------------------------------------------|
D|-------------------------------------------------------------------------|
A|-00000000-00000000-00000000-0000-----------------------55555555----------|--x2
E|--------------------------------0000-22222222-22222222----------00000000-|

Outro
9.
G|------------------------------|
D|------------------------------|
A|-5x---------------------------|
E|------------------------------|

10.
G|-------------------------------------------------------------|
D|-------------------------------------------------------------|
A|-55x----5---------------44x----55x----5---------------44x----|--x2
E|---------00x----22x----2---------------00x----22x----2-------|

Bridge
"Take back what you promised..."
11.
G|-------------------------------------------------------------------|
D|-------------------------------------------------------------------|
A|-55555555-77777777----------44444444-55555555----------------------|
E|-------------------22222222-------------------00000000-22-2-2-2-2x-|

12.
G|-------------------------------------------------------------------------|
D|-------------------------------------------------------------------------|
A|-55555555-77777777-44444444-55555555-55555555-55555555-77777777-77777777-|
E|-------------------------------------------------------------------------|

Outro
13.
G|---------------------------------------------------------------------------------|
D|----------00000000----------00000000-----------00x----000----------00x----000----|
A|---------------------------------------------------------------------------------|
E|-22222222----------22222222----------22x----222----------22x----222----------22x-|

Lyrics:

Let's take a trip down memory lane and pass by all the nights,
were I'll find myself in your arms agian.
There's no inspiration here, lets go, I think we better get.
But we're stuck deep in the depths of yesterday.

Did you know it's been too long?
This movie never ends, I need you more than anything now.
So much has changed but we will always be a part of something no one can see.

I called you from England just to hear you say:
"leave a message after the beep"
But it was more than that in your sad voice sound.
The one tape that I left you with, gave a tear to your eye and left me sick with words
I've been keeping in so long, I'm sorry agian.

Take back what you promised, it's been raining since you left me.
Don't you worry at all, I'll be back before you know it knocking on your door.

+++++++++++++++++++++++++++++++++
| RaiLeff                       |
+++++++++++++++++++++++++++++++++
            
Hard to play? Try these video lessons and learn fast. | Correct




comments powered by Disqus
↑ Back to top | Tablatures and chords are parodies/interpretations of the original songs. You may use it for private study, scholarship, research or language learning purposes only