» » »

Uriah Heep, Traveller In Time Bass tabs (ver.1)

Artists:  A B C D E F G H I J K L M N O P Q R S T U V W X Y Z # 

Traveller In Time Bass tabs (ver.1)

Uriah Heep Tabs
Rating:
5/5 (1 vote)
Traveller In Time lessons Tabs too difficult? Try these video lessons and learn fast
                "Traveller In Time"
(From the album 'Demons and Wizards' by Uriah Heep)
I find this bass really follows the intensity of the vocals.
I enjoyed doing this and please correct any mistakes you find.
Gary Thain was such a great bass player!!

Intro 
(repeat this four times)
G--------------0--------------0---------------
D---2-0-2--0-2-----2-0-2--0-2----2--0---------
A---------------------------------------3--0--
E---------------------------------------------

Verse:
G---------------------------------------------
D--2-2----------------------------------------
A---------------------5-5---------0-----------
E---------------------------------------------

G---------------------------------------------
D---2----4--------2---------------------------
A---------------------5----5--3---2----0------
E---------------------------------------------

G------------------------2---/4---2-----------
D-2--------4-------5-------------------5--2---
A-----------------------------------------0---
E---------------------------------------------

G------------------------------------7-5-7-5-----
D-----------------------------------7--------7-5-
A------------------------2--4--5-----------------
E------3----3-3-4-5------------------------------

G-------------------------------------7-7-7-5-5--
D---------------------------------5h7--------7-7-
A-7-5---------------------2--4--5----------------
E-----7-5--3--3-3-4-5----------------------------

Chorus:
G--------------------------------------10--------
D------------------------------------12---10-12--
A----------------------2--4---5--9-12------------
E-7p5-3---3-3--4-5-------------------------------

G----------------------------------------0------
D------------------------------2-0-2-0-2--------
A-------------------0---2-0-2-------------------
E---7-5-----3----3------------------------------

G-----------------2-------------55555-55-5-----
D--------2-22-2-------5----2-------------------
A-3-33-3----------------------3----------------
E----------------------------------------------

G----------------2----------4--4-44-4----------
D--------2-22-2------5---2---------------------
A-3-33-3---------------------------------------
E----------------------------------------------

Outro
G--5--5--5--5---7--7--7--7---9--9--9--9---10-10--10--10--
D--------------------------------------------------------
A--3---3--3--3--5---5--5--5--7---7--7--7---8---8---8---8-
E--------------------------------------------------------

G-------------------------------------------------
D--7-7-7-5---7-7-7-5----5--7-7-7-5--7-7-7-5----5--
A---------7---------5h7-----------7--------5h7----
E-------------------------------------------------

Last two measures then fade out with outro
G----------------------14-14-14-14-14-14-14-14----
D---7-7-7-7-7-7-7-7-7-----------------------------
A-------------------------------------------------
E-------------------------------------------------

      h - hammer on 
      p - pull off 
      b - bend string up
      / - slide up
      \ - slide down
            
Submit corrections

comments powered by Disqus
↑ Back to top | Uriah Heep Bass for Traveller In Time. Lyrics for acoustic guitar and electric guitar. Tablatures and chords are parodies/interpretations of the original songs. You may use it for private study, scholarship, research or language learning purposes only