» » »

Uriah Heep, Circle Of Hands Tabs (ver.1)

Artists:  A B C D E F G H I J K L M N O P Q R S T U V W X Y Z # 

Circle Of Hands Tabs (ver.1)

Uriah Heep Tabs
 Rating:
4/5 (4 votes)
Circle Of Hands lessons Tabs too difficult? Try these video lessons and learn fast
1
                PROPS GO TO: Spastic Viper

CIRCLE OF HANDS  (Hensley)

Organ intro:
| C | Bb | Am | C/G - G | 

Guitar:
|C - - -|Bb F|C - - -|- - Bb F| 
|C - - -|- - Bb F|C - - -|- - Bb F|

Organ:
| C | Bb | Am | C/G - G |  

verse:
C
Circle of hands
Bb
Cold spirits plan
F
Searching my land
       C
For an enemy

Came across
Bb
Love's sweet cost
F
And in the face of beauty
C
Evil was lost

Guitar:
|C - - -|Bb F|C - - -|- - Bb F| 

Organ:
| C | Bb | Am | C/G - G |  

verse:
Sky full of eyes
Minds full of lies
Black from their cold hearts
Down to their graves
Murdered the dawn
Spreading their scorn
Cursing the sun
Of which love was born


bridge:
       F            C 
We must keep them away
     F                C
Or pretty soon we'll pay
     F                 C
And count the cost in sorrow
F     C          F                C
Sacrifice - the future has it's price
       F
And today is only
 Fm            C 
Yesterday's tomorrow

Organ:
| C | Bb | Am | G(sus4)-G |

Tomorrow 

   Guitar solo:
   Em     Dm       Fm       C
E|-----------------------------|
B|-----------------------------|
G|-9--12--7---7-9-10---13--12--|  
D|-----------------------------| <- to be played twice 
A|-7--10--5---5-7--8---11--10--|
E|-----------------------------|

   dbl lead guitar:
     Em                    Dm      Fm              C
E|---------------------------------------------------|
B|-10b12---10b12r10p8--10-10------13--15b17-15-13-13-|
G|---------------------------10----------------------| 1st lead 
D|---------------------------------------------------| guitar
A|---------------------------------------------------|
E|---------------------------------------------------|
 |                                                   |
 |                                                   |
E|---------------------------------------------------|
B|-15b17---15b17r15p12-15-15------18--20b21-20-18-17-|
G|---------------------------14----------------------|  
D|---------------------------------------------------| 2nd lead
A|---------------------------------------------------| guitar
E|---------------------------------------------------|

     Em                    Dm      Fm              C
E|---------------------------------------------------|
B|-10b12---10b12r10p8--10-10------13--15b17-15-13-13-|
G|---------------------------10----------------------| 1st lead 
D|---------------------------------------------------| guitar
A|---------------------------------------------------|
E|---------------------------------------------------|
 |                                                   |
 |                                                   |
E|--------------------------------20--22b24-22-20-20-|
B|-17b19---17b19r17p15-17-17-------------------------|
G|---------------------------18----------------------|  
D|---------------------------------------------------| 2nd lead
A|---------------------------------------------------| guitar
E|---------------------------------------------------|
  Remark: Actually there are more guitars involved
  in this guitar solo, but I only bring up these two lines.


bridge:
       F            C 
We must keep them away
     F                C
Or pretty soon we'll pay
     F                 C
And count the cost in sorrow
F     C          F                C
Sacrifice - the future has it's price
       F
And today is only
 Fm            C 
Yesterday's tomorrow

Organ:
| C | Bb | Am | G(sus4)-G |

Tomorrow 

Guitar:
| C | Bb | Am | G | C | Bb | Am | G |

   Slide guitar solo:
   C           Bb            Am        G
E|---------------------------------------------|
B|-/17--17-17-17/18-\15-/18\17\13--/17\15---8/-|
G|---------------------------------------------|  
D|---------------------------------------------|  
A|---------------------------------------------|
E|---------------------------------------------|

   dbl slide guitar solo from here:
   C           Bb            Am        G
E|---------------------------------------------|
B|-/17--17-17-17/18-\15-/18\17\13--/17\15---8/-|
G|---------------------------------------------| 1st slide guitar 
D|---------------------------------------------|  
A|---------------------------------------------|
E|---------------------------------------------|
 |                                             |
 |                                             |           
E|-/15--15-15-15/17-\13-/17\15\12--/15\13---7/-|
B|---------------------------------------------|
G|---------------------------------------------| 2nd slide guitar 
D|---------------------------------------------|  
A|---------------------------------------------|
E|---------------------------------------------|

  continue to fade....
            
Submit corrections

comments powered by Disqus
↑ Back to top | Uriah Heep Tabs for Circle Of Hands. Lyrics for acoustic guitar and electric guitar. 1 Tablatures and chords are parodies/interpretations of the original songs. You may use it for private study, scholarship, research or language learning purposes only